VGJam Tabs The Legend of Zelda
The Legend of Zelda
"Credits" - Guitar, Bass tab
Platform(s):Nintendo Entertainment System
Composed by:Koji Kondo
Tabbed by:Mark McDole
Last modified:2003-02-11
Print it:Original file (.TXT)
Hear it:MIDI file
The Legend of Zelda (NES)
End Song
By Konchan

Guitar and Bass tab.


Tabbed by Mark McDole (markmcdole@hotmail.com)

This is the song that plays over the credits of the classic NES
game "The Legend of Zelda".  This is the first tab I've ever made,
so mistakes are guaranteed.

p = Pull
~ = Vibrato (not really necessary, but I like the way it sounds)
| = Follows a short staccato note



Intro Guitar

E|-3-----------7---5-----5-3-------5-----5-4-----------------------
B|-------5-4-----------5-------3-5-----6-------3-6-5-----5-3-----3-
G|-----5---------4---5-------5-------5-------5---------5-----2-4---
D|---5-------5---------------------------------------5-------------
A|-----------------------------------------------------------------
E|-----------------------------------------------------------------


	Play this twice, then continue on to Guitar 1

*****************************************************************************************

Guitar 1

  (part 1)-->                               |(part 2)-->
E|------------------------------------------|--------------------------------------------
B|----------12-----------12-15-13-----------|----------------12----------------12-15-13--
G|-12----------14-12~--14----------12-------|-12|----------12--14|-----12~--14-----------
D|----14-13--------------------------14-12~-|-----14-13|-13--------14--------------------
A|------------------------------------------|--------------------------------------------
E|------------------------------------------|--------------------------------------------


E|--------------------------------------------------------------12~--12-12---------------
B|-------------------------------12----------------12-15-13--15------------15-13~--12----
G|-14-12---------12-----------12----14-----12~--14------------------------------------14-
D|--------14-12-----14-13--13-----------14-----------------------------------------------
A|---------------------------------------------------------------------------------------
E|---------------------------------------------------------------------------------------

                                                         |
E|-------------------------------------------------------|
B|-------------------------------------------------------|
G|-12----14--------------11-12---------------------------|
D|----14----14--12-14-15-------14---------------14p12----|
A|--------------------------------15--15-15--15-------15-|
E|-------------------------------------------------------|

Play through once (part 1 and 2), then repeat just part 2.


*****************************************************************************************

Bass Guitar
(Comes in right before 2nd time through the intro guitar)

  intro  |verse 1(Play 3 times)
G|-------|-----------------------------------5---5---5---5---5-------------------
D|-------|---5---5---5---5---5---5-------2-3-------3-------2-----5---------------
A|-----2-|-3-------2-------3-------3-3-5-------3-------3-----------2-----2-------
E|-3-5---|-----3-------3-------3-------------------------------3-----3-5---------


  verse 2(Play this once)
G|-----------------------------------5---5---5---5---9---9---9---9-----------
D|---5---5---5---5---5---5-------2-3-------3-----------9-------9-----10---10-
A|-3-------2-------3-------3-3-5-------3-------3---7-------7-------8---------
E|-----3-------3-------3------------------------------------------------8----

G|---------------------------------------------------------------------------
D|---10-------5---5-----------2-3-4-5----------------2p0---------------------
A|-8----7-5-3-------4-------5-------------2-3-3-3--3-----3-----2-------------
E|--------------3-----3-5-3-----------3-5------------------3-5---------------

Then:

[Play verse 1 once more]
[Play verse 2 once more]
{end}

VGJam Tabs The Legend of Zelda - "Credits"
Tabs database last modified Thursday, 17-Apr-2014 20:21:29 CDT.
Copyright © 1999 - 2014 VideoGameJam.com. All rights reserved.