VGJam Tabs The Legend of Zelda
The Legend of Zelda
"Overworld" - Guitar tab
Platform(s):Nintendo Entertainment System
Composed by:Koji Kondo
Tabbed by:Cole Mitchell
Last modified:2000-01-02
Print it:Original file (.TXT)
Hear it:MIDI file
LEGEND OF ZELDA: MAIN THEME ("Overworld")
Composed by Koji Kondo
Transcribed by Cole Mitchell (cole_mitchell@hotmail.com)


NOTE: Each space of two characters represents a 16th note. If the
numbers representing frets run into one another, assume
that the fret numbers are double digit, rather than single
digit 32nd notes, unless otherwise stated. For example,
-1212- is more likely to be two 16th notes on the twelfth
fret than four 32nd notes on the first and second fret.


Bb Ab
e-6-------------------6---6-6---6|-6---4-6-------------6---6-6---6|
B--------------------------------|--------------------------------|
G--------------------------------|--------------------------------|
D--------------------------------|--------------------------------|
A--------------------------------|--------------------------------|
E--------------------------------|--------------------------------|
| |
e--------------------------------|--------------------------------|
B--------------------------------|--------------------------------|

G-7-------------------7---7-7---7|-5---5-5-----------------5-5---5|
D--------------------------------|--------------------------------|
A--------------------------------|--------------------------------|
E--------------------------------|--------------------------------|
| |
G--------------------------------|--------------------------------|
D--------------------------------|--------------------------------|
A--------------------------------|--------------------------------|
E-6-------6-6---6-6-------6-6---6|-4-------4-4---4-4-------4-4---4|


F# F
e-6---4-6-------------6---6-6---6|-6---1-1-1---1-1-1---1-1-1---1--|
B--------------------------------|--------------------------------|
G--------------------------------|--------------------------------|
D--------------------------------|--------------------------------|
A--------------------------------|--------------------------------|
E--------------------------------|--------------------------------|
| |
e--------------------------------|--------------------------------|
B-6---6-6-------------6---6-6---6|-6------------------------------|
G--------------------------------|-----7-7-7---7-7-7---7-7-7---7--|
D--------------------------------|--------------------------------|
A--------------------------------|--------------------------------|
E--------------------------------|--------------------------------|
| |
G--------------------------------|--------------------------------|
D--------------------------------|--------------------------------|
A--------------------------------|--------------------------------|
E-2-------2-2---2-2-------2-2---2|-2---1-1-1---1-1-1---1-1-3---5--|


Bb Ab
e-------------------------------11|-13------------------13--1314--16|
B-11------------------11--111314--|---------------------------------|
G---------10----------------------|---------------------------------|
D---------------------------------|---------------------------------|
A---------------------------------|---------------------------------|
E---------------------------------|---------------------------------|
| |
e---------------------------------|-------------9-1113--13----------|
B-----------------------------6-8-|-9-----111113-------------9-11-13|
G-7-------7-7---5-7---7---7-8-----|---------------------------------|
D---------------------------------|---------------------------------|
A---------------------------------|---------------------------------|
E---------------------------------|---------------------------------|
| |
G---------------------------------|---------------------------------|
D---------------------------------|---------------------------------|
A---------------------------------|---------------------------------|
E-6-------6-6---4-6-------6-6---6-|-4-------4-4---2-4-------4-4---4-|


F# C#
e-18------------------18--1816--14|-16----1413--------------13------|
B---------------------------------|---------------------------------|
G---------------------------------|---------------------------------|
D---------------------------------|---------------------------------|
A---------------------------------|---------------------------------|
E---------------------------------|---------------------------------|
| |
e---------------------------------|---------------------------------|
B-14----------111314--14--1413--11|-14------------------------------|
G-------111113--------------------|-------131313--1113----131311--13|
D---------------------------------|---------------------------------|
A---------------------------------|---------------------------------|
E---------------------------------|---------------------------------|
| |
G---------------------------------|---------------------------------|
D---------------------------------|---------------------------------|
A---------------------------------|-4-------4-4---2-4-------4-4---4-|
E-2-------2-2---1-2-------2-2---2-|---------------------------------|


B Bbm
e-11--111314--------------13--11--|-9---9-1113--------------11--9---|
B---------------------------------|---------------------------------|
G---------------------------------|---------------------------------|
D---------------------------------|---------------------------------|
A---------------------------------|---------------------------------|
E---------------------------------|---------------------------------|
| |
e---------------------------------|---------------------------------|
B-----------------11--------------|-----------------9-------7---6---|
G-11--111011--1113---------13--11-|-10--108-10--1011----------------|
D---------------------------------|---------------------------------|
A---------------------------------|---------------------------------|
E---------------------------------|---------------------------------|
| |
G---------------------------------|---------------------------------|
D---------------------------------|---------------------------------|
A-2-------2-2---1-2-------2-2---2-|---------------------------------|
E---------------------------------|-6-------6-6---4-6-------6-6---6-|


C F
e-8---8-1012--------------15------|-13------------------------------|
B---------------------------------|---------------------------------|
G---------------------------------|-----101010--101010--101010--10--|
D---------------------------------|---------------------------------|
A---------------------------------|---------------------------------|
E---------------------------------|---------------------------------|
| |
e-----------------------5-6---8---|-5-------------------------------|
B-5-------5-----6-8---8-----------|---------------------------------|
G---------------------------------|---------------------------------|
D---------------------------------|-----7-7-7---7-7-7---7-7-7---7---|
A---------------------------------|---------------------------------|
E---------------------------------|---------------------------------|
| |
G---------------------------------|---------------------------------|
D---------------------------------|---------------------------------|
A-3-------3-3---1-3-------3-3---3-|---------------------------------|
E---------------------------------|-1-------1-------1-------3---5---|


Bb Ab
e-------------------------------11|-13------------------13--1314--16|
B-11------------------11--111314--|---------------------------------|
G---------10----------------------|---------------------------------|
D---------------------------------|---------------------------------|
A---------------------------------|---------------------------------|
E---------------------------------|---------------------------------|
| |
e---------------------------------|-------------9-1113--13----------|
B-----------------------------6-8-|-9-----111113-------------9-11-13|
G-7-------7-7---5-7---7---7-8-----|---------------------------------|
D---------------------------------|---------------------------------|
A---------------------------------|---------------------------------|
E---------------------------------|---------------------------------|
| |
G---------------------------------|---------------------------------|
D---------------------------------|---------------------------------|
A---------------------------------|---------------------------------|
E-6-------6-6---4-6-------6-6---6-|-4-------4-4---2-4-------4-4---4-|


F# F
e-18----------------------21------|-20------17----------------------|
B---------------------------------|-------------------------18------|
G---------------------------------|---------------------------------|
D---------------------------------|---------------------------------|
A---------------------------------|---------------------------------|
E---------------------------------|---------------------------------|
| |
e-------------------------12------|-11------------------------------|
B-14------------------------------|---------13--------------10------|
G---------------------------------|---------------------------------|
D---------------------------------|---------------------------------|
A---------------------------------|---------------------------------|
E---------------------------------|---------------------------------|
| |
G---------------------------------|---------------------------------|
D---------------------------------|---------------------------------|
A---------------------------------|---------------------------------|
E-2-------2-2---1-2-------2-2---2-|-1-------1-1---1-1-------1-1---1-|


Edim F
e-------------------------18------|-17------------------------------|
B-19------------------------------|---------18--------------18------|
G---------------------------------|---------------------------------|
D---------------------------------|---------------------------------|
A---------------------------------|---------------------------------|
E---------------------------------|---------------------------------|
| |
e---------------------------------|---------------------------------|
B-12----------------------14------|-13------10--------------10------|
G---------------------------------|---------------------------------|
D---------------------------------|---------------------------------|
A---------------------------------|---------------------------------|
E---------------------------------|---------------------------------|
| |
G---------------6-9---------------|-10------------------------------|
D-----------8---------------------|---------------------------------|
A---------7-----------------------|---------------------------------|
E-0-6---9-------------------------|---------1-1---1-1---------------|


Edim F
e-------------------------18------|-17------------------------------|
B-19------------------------------|---------18--------------15------|
G---------------------------------|---------------------------------|
D---------------------------------|---------------------------------|
A---------------------------------|---------------------------------|
E---------------------------------|---------------------------------|
| |
e---------------------------------|---------------------------------|
B-12----------------------14------|-13------10--------------10------|
G---------------------------------|---------------------------------|
D---------------------------------|---------------------------------|
A---------------------------------|---------------------------------|
E---------------------------------|---------------------------------|
| |
G---------------6-9---------------|-10------------------------------|
D-----------8---------------------|---------------------------------|
A---------7-----------------------|---------------------------------|
E-0-6---9-------------------------|---------1-1---1-1---------------|


B Bbm
e-------------------------14------|-13------------------------------|
B-16------------------------------|---------14--------------11------|
G---------------------------------|---------------------------------|
D---------------------------------|---------------------------------|
A---------------------------------|---------------------------------|
E---------------------------------|---------------------------------|
| |
e---------------------------------|---------------------------------|
B-------------------------12------|-11------------------------------|
G-11------------------------------|---------10--------------6-------|
D---------------------------------|---------------------------------|
A---------------------------------|---------------------------------|
E---------------------------------|---------------------------------|
| |
G---------------------------------|---------------------------------|
D---------------------------------|---------------------------------|
A-2-------2-2---1-2-------2-2---2-|---------------------------------|
E---------------------------------|-6-------6-6---4-6-------6-6---6-|


C F
e-8---8-1012--------------15------|-13------------------------------|
B---------------------------------|---------------------------------|
G---------------------------------|-----101010--101010--101010--10--|
D---------------------------------|---------------------------------|
A---------------------------------|---------------------------------|
E---------------------------------|---------------------------------|
| |
e-----------------------5-6---8---|-5-------------------------------|
B-5-------5-----6-8---8-----------|---------------------------------|
G---------------------------------|---------------------------------|
D---------------------------------|-----7-7-7---7-7-7---7-7-7---7---|
A---------------------------------|---------------------------------|
E---------------------------------|---------------------------------|
| |
G---------------------------------|---------------------------------|
D---------------------------------|---------------------------------|
A-3-------3-3---1-3-------3-3---3-|---------------------------------|
E---------------------------------|-1-------1-------1-------3---5---|

VGJam Tabs The Legend of Zelda - "Overworld"
Tabs database last modified Tuesday, 01-Nov-2016 19:14:53 UTC.
Copyright © 1999 - 2016 VideoGameJam.com. All rights reserved.