VGJam Tabs The Legend of Zelda
The Legend of Zelda
"Title screen" - Guitar tab
Platform(s):Nintendo Entertainment System
Composed by:Koji Kondo
Tabbed by:the_chuck
Last modified:2005-01-01
Print it:Original file (.TXT)
Hear it:MIDI file
                  ~ Title BGM ~
           (From the Legend of Zelda)

Original Composition:   Koji Kondo
         Tabulation:   the_chuck (gchucky at optonline dot net)

-------------------------------------------------------------------------

Note:  My source was the Title BGM music from the Nintendo Sound History
       Series - Zelda The Music CD (tr. 2).

       On the second line, there's a repetition of the last six notes;
       you can play it if you like, but it's not needed. If you've got
       a second guitar lying around, go for it.

       And thanks to Mike Gum for looking this over for me.

Tuning: Standard tuning

-------------------------------------------------------------------------

e|-------------------------------------------------------|
B|-------------------------------------------------------|
G|--3-------3----------3--------3-2-0-2------------------|
D|------3-3---6-4-6--------4-4---------------333-333-333-|
A|-------------------------------------------------------|
E|-------------------------------------------------------|

e|----------------1--------------------1--------------------1----|
B|----------1-3-4----------------1-3-4----------------1-3-4------|
G|--3---3-3--------------3---3-3--------------3---3-3------------|
D|----3--------------------3--------------------3----------------|
A|---------------------------------------------------------------|
E|---------------------------------------------------------------|

e|--1-1-2-4-6----6-6-4-2-4-2-1----1-----1-2--------------|
B|----------------------------------4-4------------------|
G|-------------------------------------------------------|
D|-------------------------------------------------------|
A|-------------------------------------------------------|
E|-------------------------------------------------------|

e|--1---------1--------------0---3-1-----------------------|
B|----4-2-2-4------4-2-1-1-3-------------------------------|
G|---------------------------------------------------------|
D|--------------------------------------333-333-333-333----|
A|---------------------------------------------------------|
E|---------------------------------------------------------|

e|----------------1----1-1-2-4-6---9-8-5---1-2-----------|
B|----------1-3-4----------------------------------------|
G|--3---3-3----------------------------------------------|
D|----3--------------------------------------------------|
A|-------------------------------------------------------|
E|-------------------------------------------------------|

e|--6-5-1---1-2----6-5-1---------2-1-------------0---3-1--------------|
B|------------------------3-4--------2-----1-1-3----------------------|
G|---------------------------------------3----------------------------|
D|--------------------------------------------------------333-333-333-|
A|--------------------------------------------------------------------|
E|--------------------------------------------------------------------|

VGJam Tabs The Legend of Zelda - "Title screen"
Tabs database last modified Tuesday, 01-Nov-2016 19:14:53 UTC.
Copyright © 1999 - 2016 VideoGameJam.com. All rights reserved.