VGJam Tabs Madara
Madara
"Track 2" - Guitar tab
Platform(s):Nintendo Entertainment System
Tabbed by:Vincent Bouchard
Last modified:2006-10-17
Print it:Original file (.TXT)
Hear it:MIDI file
                                     TRACK 2
                                     Madara

Transcribed by Vincent Bouchard

Gtr I (E A D G B E) - 'Lead'

    Q=130
   4/4
    Gtr I
                |-3--|
    E  E E E  E S  S S E E    E. S +H.
||-------------------------|--------------|
||o-8----------------------|-----8-(8)----|
||----10-8-7-10-8-10-8-7---|--------------|
||-----------------------8-|-10-----------|
||o------------------------|--------------|
||-------------------------|--------------|


              |-3--|                  |-3--| |-3--|
  E  E E E  E S  S S E E   E S S H    S  S S S  S S
|----------------------6-|-8------------------------|
|-8----------------------|---8-6-8----------------7-|
|---10-8-7-10-8-10-8-7---|-----------------7-8-10---|
|------------------------|------------9-10----------|
|------------------------|--------------------------|
|------------------------|--------------------------|


              |-3--|                    |-3--| |-3--|
  E  E E E  E S  S S E E    E. S +H     S  S S S  S S
|------------------------|----------------------------|
|-8----------------------|-----8-(8)----------------7-|
|---10-8-7-10-8-10-8-7---|-------------------7-8-10---|
|----------------------8-|-10-----------9-10----------|
|------------------------|----------------------------|
|------------------------|----------------------------|


              |-3--|
  E  E E E  E S  S S E E   E S S H    +E   E
|----------------------6-|-8-----------------|
|-8----------------------|---8-6-8----(8)----|
|---10-8-7-10-8-10-8-7---|----------------10-|
|------------------------|-------------------|
|------------------------|-------------------|
|------------------------|-------------------|


  E E  E S E S E  S S S  S    E E E S  E  S E S S  S S
|--------------------------|---------------------------|
|--------------------------|---------------------------|
|-8-7----7-8-8-7----7-8----|-10-8-7-8-10-10-8-7-8-10-7-|
|-----10---------10-----10-|---------------------------|
|--------------------------|---------------------------|
|--------------------------|---------------------------|


  E E E E E  E E E    Q  E Q  E Q
|-----7------------|---------------|
|-8-9---9-8--------|-----8---------|
|-----------10-8-7-|-10----8--8-7--|
|------------------|---------------|
|------------------|---------------|
|------------------|---------------|


   Q.   Q.   Q     Q.   Q.   Q
|---------------|------------6--|
|-------8-------|---------------|
|------------8--|-10----7-------|
|-10------------|---------------|
|---------------|---------------|
|---------------|---------------|


        |-3-|
  Q  Q  Q Q Q   Q.   Q  S S  S S S  S
|-8--6--------|------------------7-10-|
|-------8-6---|-6----8---------8------|
|-----------8-|-----------7-10--------|
|-------------|---------9-------------|
|-------------|-----------------------|
|-------------|-----------------------|


   S  S S S Q  +E.  E E  S   S  S S S  H     +S  E S
|-11-10-8-7-8--(8)---------|-------------------------|
|------------------11-8----|------8------------------|
|-----------------------10-|-8-10---8------------7-8-|
|--------------------------|----------10----(10)-----|
|--------------------------|-------------------------|
|--------------------------|-------------------------|


   Q.   E. E S  E E   E S  S  +H.
|-------------------|----------------|
|-------------------|----------------|
|-10----7--8-7------|-7-8------------|
|--------------10-8-|-----10-(10)----|
|-------------------|----------------|
|-------------------|----------------|


  E Q   Q  E  S  S  E    S  S  S  E.  S  S  S  E.  +S   E  S
|----------8-10-11-13-|-13-15-11-----13-15-11-------------11-|
|---8--11-------------|----------13-----------13--(13)-15----|
|---------------------|--------------------------------------|
|---------------------|--------------------------------------|
|---------------------|--------------------------------------|
|---------------------|--------------------------------------|


   Q   Q   Q   Q     W
|-15--13----------|-------|
|---------15--11--|-13----|
|-----------------|-------|
|-----------------|-------|
|-----------------|-------|
|-----------------|-------|


   Q.    Q.    +Q     Q.    Q.    +Q
|-------------------|------------------|
|-------------------|------------------|
|-12----10----(10)--|-8----10----(10)--|
|-12----10----(10)--|-8----10----(10)--|
|-10-----8-----(8)--|-6-----8-----(8)--|
|-------------------|------------------|


   Q.    Q.    +Q     Q.    Q   E  Q
|-------------------|------------------||
|-------------------|-----------------o||
|-12----10----(10)--|-8----10--15-15---||
|-12----10----(10)--|-8----10--15-15---||
|-10-----8-----(8)--|-6-----8--13-13--o||
|-------------------|------------------||


Duration Legend
---------------
W - whole; H - half; Q - quarter; E - 8th; S - 16th; T - 32nd; X - 64th; a - acciaccatura
+ - note tied to previous; . - note dotted; .. - note double dotted
Uncapitalized letters represent notes that are staccato (1/2 duration)
Irregular groupings are notated above the duration line
Duration letters will always appear directly above the note/fret number it represents the
duration for.  Duration letters with no fret number below them represent rests.  Multi-
bar rests are notated in the form Wxn, where n is the number of bars to rest for.  Low
melody durations appear below the staff

Tablature Legend
----------------
 h   - hammer-on
 p   - pull-off
 b   - bend
 pb  - pre-bend
 r   - bend release (if no number after the r, then release immediately)
 /\  - slide into or out of (from/to "nowhere")
 s   - legato slide
 S   - shift slide
  - natural harmonic
[n]  - artificial harmonic
n(n) - tapped harmonic
 ~   - vibrato
 tr  - trill
 T   - tap
 TP  - trem. picking
 PM  - palm muting
\n/  - tremolo bar dip; n = amount to dip
 \n  - tremolo bar down
 n/  - tremolo bar up
/n\  - tremolo bar inverted dip
 =   - hold bend; also acts as connecting device for hammers/pulls
 <>  - volume swell (louder/softer)
 x   - on rhythm slash represents muted slash
 o   - on rhythm slash represents single note slash

Misc Legend
-----------
 |  - bar
||  - double bar
||o - repeat start
o|| - repeat end
*|  - double bar (ending)
 :  - bar (freetime)
 $  - Segno
 &  - Coda
Tempo markers -  = BPM(8/16=s8/s16), where s8 = swing 8ths, s16 = swing 16ths


***************************************************************************************
* Generated using Power Tab Editor by Brad Larsen - http://powertab.guitarnetwork.org *
***************************************************************************************

VGJam Tabs Madara - "Track 2"
Tabs database last modified Tuesday, 01-Nov-2016 19:14:53 UTC.
Copyright © 1999 - 2016 VideoGameJam.com. All rights reserved.