VGJam Tabs Madara
Madara
"Track 7" - Guitar tab
Platform(s):Nintendo Entertainment System
Tabbed by:Vincent Bouchard
Last modified:2006-10-17
Print it:Original file (.TXT)
Hear it:MIDI file
                                     TRACK 7
                                     Madara

Transcribed by Vincent Bouchard

Gtr I (E A D G B E) - 'Lead'
Gtr II (E A D G B E) - 'Guitar 2'

    Q=105
   4/4
    Gtr I
     S  S  S  S  S  S  S  S  S  S  S  S  S  S  S  S
||--------------------------14-14-------------------|
||o-------14-14-12-12-14-14-------14-14-12-12-14-14-|
||--11-11-------------------------------------------|
||--------------------------------------------------|
||o-------------------------------------------------|
||--------------------------------------------------|


   S  S  S  S  S  S  S  S  S  S  S  S  S  S  S  S
|-------------------------14-14--------------------|
|-------14-14-12-12-14-14-------14-14-12-12-14-14--|
|-11-11--------------------------------------------|
|--------------------------------------------------|
|--------------------------------------------------|
|--------------------------------------------------|


   H.                                   S  S  S  S
|--------------------------------------------------|
|-14-----------------------------------12----------|
|-----------------------------------------14-13-14-|
|--------------------------------------------------|
|--------------------------------------------------|
|--------------------------------------------------|
|
| Gtr II
|  S   S  S  S  S  S  S  S  S  S  S  S  S  S  S  S
|--------------------------14-14-------------------|
|--------14-14-12-12-14-14-------14-14-12-12-14-14-|
|-11--11-------------------------------------------|
|--------------------------------------------------|
|--------------------------------------------------|
|--------------------------------------------------|


   E.        S  H                       S  S  S  S
|---------------------------------------------------|
|---------------------------------------------------|
|-13-----------------------------------------11-13--|
|-----------14-11----------------------12-14--------|
|---------------------------------------------------|
|---------------------------------------------------|
|
|  S   S  S  S  S  S  S  S  S  S  S  S  S  S  S  S
|--------------------------14-14--------------------|
|--------14-14-12-12-14-14-------14-14-12-12-14-14--|
|-11--11--------------------------------------------|
|---------------------------------------------------|
|---------------------------------------------------|
|---------------------------------------------------|


   H.                                   E     E
|--------------------------------------------------|
|--------------------------------------------------|
|-14-----------------------------------13----14----|
|--------------------------------------------------|
|--------------------------------------------------|
|--------------------------------------------------|
|
|  S   S  S  S  S  S  S  S  S  S  S  S  S  S  S  S
|--------------------------------------------------|
|--------------------------15-15-------------------|
|--------14-14-13-13-14-14-------14-14-13-13-14-14-|
|-12--12-------------------------------------------|
|--------------------------------------------------|
|--------------------------------------------------|


   E.        S  H.
|-----------12---------------------------------------|
|-12-----------14------------------------------------|
|----------------------------------------------------|
|----------------------------------------------------|
|----------------------------------------------------|
|----------------------------------------------------|
|
|  S   S  S  S  S   S  S  S  S  S  S  S  S  S  S  S
|----------------------------------------------------|
|---------------------------15-15--------------------|
|--------14-14-13--13-14-14-------14-14-13-13-14-14--|
|-12--12---------------------------------------------|
|----------------------------------------------------|
|----------------------------------------------------|


   H.                                   S  S  S  S
|-14-----------------------------------12----------|
|-----------------------------------------15-14-12-|
|--------------------------------------------------|
|--------------------------------------------------|
|--------------------------------------------------|
|--------------------------------------------------|
|
|  S   S  S  S  S  S  S  S  S  S  S  S  S  S  S  S
|--------------------------------------------------|
|--------------------------12-12-------------------|
|--------11-11-------11-11-------11-11-------11-11-|
|--------------14-14-------------------14-14-------|
|-14--14-------------------------------------------|
|--------------------------------------------------|


   H                       E.        E.        E
|----------------------------------------------------|
|-15------------------------------------------12-----|
|-------------------------12--------14---------------|
|----------------------------------------------------|
|----------------------------------------------------|
|----------------------------------------------------|
|
|  S  S  S  S  S  S  S  S  S   S  S  S   S  S  S  S
|----------------------------------------------------|
|----------------------------------------------------|
|-------------------------12--12---------------------|
|-------12-12-11-11-12-12--------12-12--11-11-12-12--|
|-10-10----------------------------------------------|
|----------------------------------------------------|


   W
|-------------------------------------------------|
|-14----------------------------------------------|
|-------------------------------------------------|
|-------------------------------------------------|
|-------------------------------------------------|
|-------------------------------------------------|
|
|  S  S  S  S  S  S  S  S  S  S  S  S  S  S  S  S
|-------------------------------------------------|
|-------------------------14-14-------------------|
|-------13-13-11-11-13-13-------13-13-11-11-13-13-|
|-11-11-------------------------------------------|
|-------------------------------------------------|
|-------------------------------------------------|


   E.        S  H.
|----------------------------------------------------|
|-12-------------------------------------------------|
|-----------14-13------------------------------------|
|----------------------------------------------------|
|----------------------------------------------------|
|----------------------------------------------------|
|
|  S   S  S  S  S   S  S  S  S  S  S  S  S  S  S  S
|----------------------------------------------------|
|---------------------------14-14--------------------|
|--------13-13-11--11-13-13-------13-13-10-10-13-13--|
|-11--11---------------------------------------------|
|----------------------------------------------------|
|----------------------------------------------------|


  S  S S e e e S e Q            S  S S e e e S S S S  E.
|-----------------------------|--------------------------------|
|----------5-4----------------|----------5-4-4-5-6-7-----------|
|------6-4-----4-6------------|------6-4-----------------------|
|-4--4------------------------|-4--4---------------------------|
|-----------------------------|--------------------------------|
|-----------------------------|--------------------------------|
|
| H.               S  S  S  S   H.                 S  S   S  S
|--------------------------14-|-----------------------------14-|
|--------------------12-14----|----------------------12--14----|
|-----------------------------|--------------------------------|
|-----------------------------|--------------------------------|
|-----------------------------|--------------------------------|
|-----------------------------|--------------------------------|


  S S S S Q          S S S S Q
|---------------------------------------|
|---------------------------------------|
|-----6-4----------------7-5------------|
|-4-4----------------5-5----------------|
|---------------------------------------|
|---------------------------------------|
|
| Q       S  S  S  S Q       S  S  S  S
|-----------------14-----------------15-|
|-----------12-14--------------13-15----|
|---------------------------------------|
|---------------------------------------|
|---------------------------------------|
|---------------------------------------|


   W
|----------------------------------------------||
|---------------------------------------------o||
|----------------------------------------------||
|----------------------------------------------||
|---------------------------------------------o||
|----------------------------------------------||
|
|  S  S  S  S  S  S S  S  S S  S  S S  S S S
|----14-14----13-13---12-12---11-11---10---9---||
|---------------------------------------------o||
|-11-------10-------9-------8-------7----6-----||
|----------------------------------------------||
|---------------------------------------------o||
|----------------------------------------------||


Duration Legend
---------------
W - whole; H - half; Q - quarter; E - 8th; S - 16th; T - 32nd; X - 64th; a - acciaccatura
+ - note tied to previous; . - note dotted; .. - note double dotted
Uncapitalized letters represent notes that are staccato (1/2 duration)
Irregular groupings are notated above the duration line
Duration letters will always appear directly above the note/fret number it represents the
duration for.  Duration letters with no fret number below them represent rests.  Multi-
bar rests are notated in the form Wxn, where n is the number of bars to rest for.  Low
melody durations appear below the staff

Tablature Legend
----------------
 h   - hammer-on
 p   - pull-off
 b   - bend
 pb  - pre-bend
 r   - bend release (if no number after the r, then release immediately)
 /\  - slide into or out of (from/to "nowhere")
 s   - legato slide
 S   - shift slide
  - natural harmonic
[n]  - artificial harmonic
n(n) - tapped harmonic
 ~   - vibrato
 tr  - trill
 T   - tap
 TP  - trem. picking
 PM  - palm muting
\n/  - tremolo bar dip; n = amount to dip
 \n  - tremolo bar down
 n/  - tremolo bar up
/n\  - tremolo bar inverted dip
 =   - hold bend; also acts as connecting device for hammers/pulls
 <>  - volume swell (louder/softer)
 x   - on rhythm slash represents muted slash
 o   - on rhythm slash represents single note slash

Misc Legend
-----------
 |  - bar
||  - double bar
||o - repeat start
o|| - repeat end
*|  - double bar (ending)
 :  - bar (freetime)
 $  - Segno
 &  - Coda
Tempo markers -  = BPM(8/16=s8/s16), where s8 = swing 8ths, s16 = swing 16ths


***************************************************************************************
* Generated using Power Tab Editor by Brad Larsen - http://powertab.guitarnetwork.org *
***************************************************************************************

VGJam Tabs Madara - "Track 7"
Tabs database last modified Tuesday, 01-Nov-2016 19:14:53 UTC.
Copyright © 1999 - 2016 VideoGameJam.com. All rights reserved.