VGJam Tabs Mega Man
Mega Man
"Bomb Man" - Guitar tab
Platform(s):Nintendo Entertainment System
Tabbed by:ddevil
Last modified:2002-12-15
Print it:Original file (.TXT)
Hear it:MIDI file
MegaMan / NES / BombMan's Stage(Guitar 1)

Tabbed by: ddevil@evilgaming.net

-------------------------------------------------------------------------------------

Probably my favorite tune in MegaMan.

E||------13--11----16----14--|------------------|------13--11----16------|
B||--------------------------|------------------|------------------------|
G||--------------------------|------------------|------------------------|
D||--------------------------|------------------|------------------------|
A||--------------------------|------------------|------------------------|
E||--------------------------|------------------|------------------------|



--16-16-16-16---16----------|--------------------------------|----------------------|
----------------------------|---------------------14------12-|----------------------|
----------------------------|--13--------------13-----13-----|----------13----11----|
----------------------------|------------15-16---------------|----------------------|
----------------------------|--------------------------------|----------------------|
----------------------------|--------------------------------|----------------------|



--------------------13--9--14-|----------13----11----|--------------------9-----7-|
------------------9-----------|----------------------|------------------9----9----|
--13--------10-11-------------|----------------------|--13--------10-11-----------|
------------------------------|----------------------|----------------------------|
------------------------------|----------------------|----------------------------|
------------------------------|----------------------|----------------------------|



----------4-5-7-12-------|--10------10-15---12------12-17---|--19-----18-17-16-----------|
--------------------12---|------12--------------14----------|----------------------------|
-------------------------|----------------------------------|------------------16--------|
-------------------------|----------------------------------|----------------------------|
-------------------------|----------------------------------|----------------------------|
-------------------------|----------------------------------|----------------------------|



--------------------------------------------------|-----2-4-5-7-9-11-9-7-9-7-5-4-3-2-1-|
-----------12-14-16-17-16-14-16-14-12-------------|------------------------------------|
-----13-14----------------------------14-16-14-13-|------------------------------------|
--16----------------------------------------------|--14--------------------------------|
--------------------------------------------------|------------------------------------|
--------------------------------------------------|------------------------------------|



--2-4-5-7-9-11-12-11----------8-9-11-12-11-|----------------------12--17--|
------------------------10-11--------------|-----------------12-----------|
---------------------12--------------------|------------11----------------|
-------------------------------------------|-------11---------------------|
-------------------------------------------|--11--------------------------|
-------------------------------------------|------------------------------|



--16--14-16--14-16-14-13----------11-13-|--14--12-14--12-14-12-10-------------10-|
--------------------------14---14-------|--------------------------12---12-13----|
----------------------------------------|----------------------------------------|
----------------------------------------|----------------------------------------|
----------------------------------------|----------------------------------------|
----------------------------------------|----------------------------------------|



--12------------------14------------------|--15------------------16------------------||
-----13------------------15---------------|-----17------------------16---------------||
---------12------------------14-----------|---------17------------------17-----------||
------------14------------------16--------|------------17-14---------------18--------||
---------------15------------------17-----|-------------------15--------------18--15-||
-------------------15------------------17-|------------------------------------------||




MegaMan / NES / BombMan's Stage(Guitar 2)

Tabbed by: ddevil@evilgaming.net

----------------------------------------------------------------------------

Just the second Square Wave here. Nothing special.

E||------9--9----9----7--|------------------|------9--9----9------|
B||----------------------|------------------|---------------------|
G||----------------------|------------------|---------------------|
D||----------------------|------------------|---------------------|
A||----------------------|------------------|---------------------|
E||----------------------|------------------|---------------------|



--8-8-8-8---8----------|-----------------4-------|--------------------|
-----------------------|--6----------4-6----6--7-|----------7----7----|
-----------------------|-----------6-------------|--------------------|
-----------------------|-------------------------|--------------------|
-----------------------|-------------------------|--------------------|
-----------------------|-------------------------|--------------------|



-----------------4-----7-|----------4----2----|--1----------1-1-4--1--4-|
--6----------4-6----6----|--------------------|-----------4-------------|
-----------6-------------|--------------------|-------------------------|
-------------------------|--------------------|-------------------------|
-------------------------|--------------------|-------------------------|
-------------------------|--------------------|-------------------------|



----------0-2-4-7--4---|--7-----7-10---9------9-12---|--11-----11-11-11-11--------|
-----------------------|-----8------------10---------|----------------------------|
-----------------------|-----------------------------|----------------------------|
-----------------------|-----------------------------|----------------------------|
-----------------------|-----------------------------|----------------------------|
-----------------------|-----------------------------|----------------------------|



-----------------------------|-------------------------|-----------------------------|
-----------------------------|-------------------------|-----------------------------|
--11--------9--11--------11--|--9-------8--9-------10--|--11--------9--11--------12--|
-------11-----------11-------|------9----------9-------|-------11-----------11-------|
-----------------------------|-------------------------|-----------------------------|
-----------------------------|-------------------------|-----------------------------|



--------------------------12--|--13--11-13--11-13-11-9----------9-|
----------------------12------|-------------------------9---9-9---|
-----------------11-----------|-----------------------------------|
------------11----------------|-----------------------------------|
--11---11---------------------|-----------------------------------|
------------------------------|-----------------------------------|



--10--9-10--9-10-9-7----------7-|--8---------------10-----------------|
----------------------7---7-7---|----8----------------10--------------|
--------------------------------|-------9-----------------11----------|
--------------------------------|---------10-----------------12-------|
--------------------------------|------------10--7--------------12--9-|
--------------------------------|-------------------------------------|



--12----------------14-11---------------||
-----13---------------------------------||
---------11-9--------------13-11--------||
--------------10-----------------13-----||
------------------9------------------11-||
----------------------------------------||

VGJam Tabs Mega Man - "Bomb Man"
Tabs database last modified Tuesday, 01-Nov-2016 19:14:53 UTC.
Copyright © 1999 - 2016 VideoGameJam.com. All rights reserved.