VGJam Tabs Bonk's Adventure
Bonk's Adventure
"Lake stage" - Guitar tab
Platform(s):TurboGrafx-16
Tabbed by:Deezer
Last modified:2005-03-12
Print it:Original file (.TXT)
Hear it:MIDI file
#----------------------------------PLEASE NOTE---------------------------------#
#This file is the author's own work and represents their interpretation of the #
#song. You may only use this file for private study, scholarship, or research. #
#------------------------------------------------------------------------------#

Bonk's Adventure (TurboGrafx-16)
"Lake stage"

Originally composed by:  H. Takayama?
------------------------------------------------------------------------------
Tabbed by: Deezer (deezer AT videogamejam DOT com)
For http://www.videogamejam.com
------------------------------------------------------------------------------


This tune was also used for Piranha Lake in Bonk's Revenge.

Symbols used:
  p = pull-off

Standard tuning: (low to high) EADGBe


|----------------------------------------------------------------
|----------------------------------------------------------------
|---13---13---15------------13------13------13---15--------------
|------------------15------------------------------------13------
|----------------------------------------------------------------
|----------------------------------------------------------------

 ----------------------------------------------------------------|
 -------------------------------------------16---15--------------|
 ---13---13---15------------13------13---------------------------|
 ------------------15--------------------------------------------|
 ----------------------------------------------------------------|
 ----------------------------------------------------------------| x4

-----------13----------------------------------------------------
-15---16---------16----15---16----15----13---15------------------
---------------------------------------------------15------------
-----------------------------------------------------------------
-----------------------------------------------------------------
-----------------------------------------------------------------

-----------13--------------------------------------15------------
-15---16---------16----15---16----15----13---15------------------
-----------------------------------------------------------------
-----------------------------------------------------------------
-----------------------------------------------------------------
-----------------------------------------------------------------

-----------13----------------------------------------------------
-15---16---------16----15---16----15----13---15------------------
---------------------------------------------------15------------
-----------------------------------------------------------------
-----------------------------------------------------------------
-----------------------------------------------------------------

------------------13-----15-----16-----15----15---15--15p13------
-13---15---16----------------------------------------------------
-----------------------------------------------------------------
-----------------------------------------------------------------
-----------------------------------------------------------------
-----------------------------------------------------------------

Repeat from beginning.


Last modified: 03/12/2005

VGJam Tabs Bonk's Adventure - "Lake stage"
Tabs database last modified Tuesday, 01-Nov-2016 19:14:53 UTC.
Copyright © 1999 - 2016 VideoGameJam.com. All rights reserved.