VGJam Tabs Mega Man
Mega Man
"Bomb Man" - Bass tab
Platform(s):Nintendo Entertainment System
Tabbed by:ddevil
Last modified:2002-12-15
Print it:Original file (.TXT)
Hear it:MIDI file
MegaMan / NES / BombMan's Stage(Bass)

Tabbed by: ddevil@evilgaming.net

------------------------------------------------------------------------------------------

Somewhat difficult to get right. Play along with the NSF if it troubles 
you.

G||--6--6-6---6-6-6--6-6---6-6-|--6--6-6------4-----4--5--|--6--6-6---6-6-6--6-6---6-6-|
D||----------------------------|-----------6-----6--------|----------------------------|
A||----------------------------|--------------------------|----------------------------|
E||----------------------------|--------------------------|----------------------------|



----------------------|--6--6-6---6-6-6--6-6---4-6-|--4--4-4---4-4-4--4-4---2-4-|
--6---6-6--6----------|----------------------------|----------------------------|
----------------------|----------------------------|----------------------------|
----------------------|----------------------------|----------------------------|



--6--6-6---6-6-6--6-6---4-6-|--4--4-4---4-4-4--4-4---2-4-|--6--6-6---6-6-6--6-6---4-6-|
----------------------------|----------------------------|----------------------------|
----------------------------|----------------------------|----------------------------|
----------------------------|----------------------------|----------------------------|



--9--9-9---9-9-9--9-9---7-9-|--12---12---12--14---14---14--|--16----------------------|
----------------------------|------------------------------|--------------------------|
----------------------------|------------------------------|----------14-14-14--------|
----------------------------|------------------------------|--------------------------|



--11--11-11---11-11-11--11-11---11-11-|--9--9-9---9-9-9--9-9---9-9-|
--------------------------------------|----------------------------|
--------------------------------------|----------------------------|
--------------------------------------|----------------------------|



--11--11-11---11-11-12--12-12---12-12-|--13--13-13---13-13-13--13-13---13-13-|
--------------------------------------|--------------------------------------|
--------------------------------------|--------------------------------------|
--------------------------------------|--------------------------------------|



-------------------------------------|----------------------------|
--11--11-11---11-11-11--11-11---9-11-|--9--9-9---9-9-9--9-9---7-9-|
-------------------------------------|----------------------------|
-------------------------------------|----------------------------|



--------------------7--7-7---7-7-|--5--5-5---5-5-8--8-8---8-8-||
--10--10-10---10-10--------------|----------------------------||
---------------------------------|----------------------------||
---------------------------------|----------------------------||

VGJam Tabs Mega Man - "Bomb Man"
Tabs database last modified Tuesday, 01-Nov-2016 19:14:53 UTC.
Copyright © 1999 - 2016 VideoGameJam.com. All rights reserved.