VGJam Tabs Mega Man 2
Mega Man 2
"Bubble Man" - Guitar tab
Platform(s):Nintendo Entertainment System
Tabbed by:Bennett
Last modified:2001-07-05
Print it:Original file (.TXT)
*----------------------This file from Bennett----------------------*
*-------------Have Fun Practising And Getting It Right-------------*
*--If i haven't got it right i'm sorry but it's the best i can do--*

Date: Thursday, 05 of July 2001.
From: Eric (Nick) - "Bennett".
Subject: Bubble Man, Mega Man 2(NES).


		Mega Man 2 - Bubble Man Stage

*Very Important*		
	1.Normal Tuning E,A,D,G,B,E. Starting with the Biggest 
String.
        2.Clean/or/Slightly distorted Sound.

Legend: 
* = Harmonic
/ = Slide
h = Hammer-on
p = Pull-off
" = Block strings
% = Let ring strings
| = Indicates there is a new bar
PM... = Palm Mute
R = Repeat Until you don't need to do it anymore.
WH = Whamy Bar (Vibrato w/ Bar)
~ = Vibrato

E|----------||-------------||-------||------------10-10--||---10-10-----|
A|----------||-------------||-------||-------------------||-------------|
D|------0---||---1--3--0---||-------||------0------------||---------0---|
G|----------||-------------||---3---||---3---------------||-------------|
B|----------||-------------||-------||---------0---------||-------------|
E|----------||-------------||-------||-------------------||-------------|



|-------------||-------||------------10-10--||---10-10--------||--------
|-------------||-------||-------------------||----------------||--------
|---1--3--0---||-------||------0------------||----------------||--------
|-------------||---3---||---3---------------||---------10-10--||---8--10
|-------------||-------||---------0---------||----------------||--------
|-------------||-------||-------------------||----------------||--------



--------||----------------||----------------||----------------||--------
--------||----------------||----------------||----------------||--------
--------||----------------||----------------||----------------||--------
-10-10--||---8--10-12-12--||---10-12-12-12--||---10-12-10-10--||---8--10
--------||----------------||----------------||----------------||--------
--------||----------------||----------------||----------------||--------



--------||----------------||----------------||---------11--||---11-13-15
--------||----------------||---------0--3---||---0--3------||-----------
--------||----------------||----------------||-------------||-----------
-10-10--||---8--10-12-12--||---10-12--------||-------------||-----------
--------||----------------||----------------||-------------||-----------
--------||----------------||----------------||-------------||-----------



-13--||---11-11-13--------||-------------||---18-16-15--||---15-13-11-18
-----||------------15-16--||---15-13-11--||-------------||--------------
-----||-------------------||-------------||-------------||--------------
-----||-------------------||-------------||-------------||--------------
-----||-------------------||-------------||-------------||--------------
-----||-------------------||-------------||-------------||--------------



-16--||---15-20-19--||------19-22--||----------||----------------||-----
-----||-------------||---20--------||----------||----------------||-----
-----||-------------||-------------||----------||----------------||-----
-----||-------------||-------------||----------||----------------||-----
-----||-------------||-------------||---18-17--||---17-15-17-17--||---15
-----||-------------||-------------||----------||----------------||-----



-----------------||----------------||-------------||----------------||-----
-----------------||----------------||-------------||---------3--3---||---1-
-------------15--||---13-12-10-8---||---7--8--7---||---7--5---------||-----
-13-15-17-15-----||----------------||-------------||----------------||-----
-----------------||----------------||-------------||----------------||-----
-----------------||----------------||-------------||----------------||-----



-------------6---||---4--3--7--10--||---13-15--------||----------------|
-4--6--8--6------||----------------||----------------||----------------|
-----------------||----------------||----------------||----------------|
-----------------||----------------||----------------||----------------|
-----------------||----------------||---------15-15--||---13-15-15-15--|
-----------------||----------------||----------------||----------------|



|----------------||----------------||----------------||----------------|
|----------------||----------------||----------------||----------------|
|----------------||----------------||----------------||----------------|
|----------------||----------------||----------------||----------------|
|---13-15-17-17--||---15-17-17-17--||---15-17-15-15--||---13-15-15-15--|
|----------------||----------------||----------------||----------------|



|----------------||----------------||---------11--||---11-13-15-13--||---11
|----------------||---------0--3---||---0--3------||----------------||-----
|----------------||----------------||-------------||----------------||-----
|----------------||----------------||-------------||----------------||-----
|---13-15-17-17--||---15-17--------||-------------||----------------||-----
|----------------||----------------||-------------||----------------||-----



-11-13--------||-------------||---18-16-15--||---15-13-11-18-16--||---15
-------15-16--||---15-13-11--||-------------||-------------------||-----
--------------||-------------||-------------||-------------------||-----
--------------||-------------||-------------||-------------------||-----
--------------||-------------||-------------||-------------------||-----
--------------||-------------||-------------||-------------------||-----



-20-19--||------19-22--||----------||----------------||-----------------
--------||---20--------||----------||----------------||-----------------
--------||-------------||----------||----------------||-----------------
--------||-------------||----------||----------------||------13-15-17-15
--------||-------------||---18-17--||---17-15-17-17--||---15------------
--------||-------------||----------||----------------||-----------------



-----||----------------||-------------||----------------||--------------
-----||----------------||-------------||---------3--3---||---1--4--6--8-
-15--||---13-12-10-8---||---7--8--7---||---7--5---------||--------------
-----||----------------||-------------||----------------||--------------
-----||----------------||-------------||----------------||--------------
-----||----------------||-------------||----------------||--------------



----6---||---4--3--7--10--||---13-15--------||----------------||--------
-6------||----------------||----------------||----------------||--------
--------||----------------||----------------||----------------||------8-
--------||----------------||---------13-12--||---12-10-12-12--||---10---
--------||----------------||----------------||----------------||--------
--------||----------------||----------------||----------------||--------



----------6---||---4--3--1------||-------------||----------------||-----
-6--8--6------||------------4---||---3--4--3---||---3--1--3--3---||---1-
--------------||----------------||-------------||----------------||-----
--------------||----------------||-------------||----------------||-----
--------------||----------------||-------------||----------------||-----
--------------||----------------||-------------||----------------||-----



-------------6---||---4--3--7--10--||---13-15--|
-4--6--8--6------||----------------||----------|
-----------------||----------------||----------|
-----------------||----------------||----------|
-----------------||----------------||----------|
-----------------||----------------||----------|


VGJam Tabs Mega Man 2 - "Bubble Man"
Tabs database last modified Tuesday, 01-Nov-2016 19:14:53 UTC.
Copyright © 1999 - 2016 VideoGameJam.com. All rights reserved.