VGJam Tabs Mega Man 2
Mega Man 2
"Bubble Man" - Guitar tab
Platform(s):Nintendo Entertainment System
Tabbed by:devoid
Last modified:2001-08-15
Print it:Original file (.TXT)
Megaman 2 -Bubbleman

Pretty emotional for a video game tune!

e:---------------------------------------
B:---------------------------------------
G:---0----1--3--1------------0-----------
D:-------------------3----3--------------
A:------------------------------5-5--5-5-
E:------------------------------3-3--3-3-

e:---------------------------------------------------------------
B:---------------------------------------------------------------
G:---------------------------------------------------------------
D:---------------------------------------------------------------
A:---3----3--1---3--3----3--1---3--5----5--3---5--5----5--3---5--
E:---------------------------------------------------------------

e:---------------------------------------------------------------
B:---------------------------------------------------------------
G:---------------------------------------------------------------
D:---------------------------------------------------------------
A:---3----3--1---3--3----3--1---3--5----5--3---5--2----5--3---5--
E:---------------------------------------------------------------

Now we get to the fun part
e:----------------------------------------------------
B:----------------------------------------------------
G:---/8---8---8--10--12--10--8---8/10-----------------
D:-------------------------------------7h8--7---------
A:---------------------------------------------10--8--
E:----------------------------------------------------

e:---/6-----------------6----------8p7-------7--8^(10)----
B:-------9--8----8p6-------9--8-----------8---------------
G:-------------------8------------------------------------
D:--------------------------------------------------------
A:--------------------------------------------------------
E:--------------------------------------------------------

e:---------------------------------------------------------------------
B:---------------------------------------------------------------------
G:---12---10-10---8--10-10--------8-10/12---10---15--13--12--10--8--7--
D:----------------------------10---------------------------------------
A:---------------------------------------------------------------------
E:---------------------------------------------------------------------

e:--------------------------------------------------------------10-13--15-
B:----------------------------------------------------------12------------
G:--12---10-10---8--10-10--------8-10/12---10---15--13--12----------------
D:---------------------------10-------------------------------------------
A:------------------------------------------------------------------------
E:------------------------------------------------------------------------

VGJam Tabs Mega Man 2 - "Bubble Man"
Tabs database last modified Tuesday, 01-Nov-2016 19:14:53 UTC.
Copyright © 1999 - 2016 VideoGameJam.com. All rights reserved.