VGJam Tabs Mega Man 2
Mega Man 2
"Bubble Man" - Guitar tab
Platform(s):Nintendo Entertainment System
Tabbed by:ddevil
Last modified:2002-12-15
Print it:Original file (.TXT)
MegaMan II / NES / BubbleMan's Stage(Guitar 1)

Tabbed by: ddevil@evilgaming.net

---------------------------------------------------------------------------

BubbleMan, in all its glory.


E||----------------------|------------------|----------------------|
B||----------------------|------------------|----------------------|
G||----------------------|------------------|----------------------|
D||--5--------6----8--5--|------------------|--3--------3----5-----|
A||----------------------|------------------|-------------------0--|
E||----------------------|------------------|----------------------|



--15--15------15--15------|----------------------|------------------|
--------------------------|----------------------|------------------|
--------------------------|----------------------|------------------|
--------------------------|--5--------6----8--5--|------------------|
--------------------------|----------------------|------------------|
--------------------------|----------------------|------------------|



----------------------|--15--15------15--15------|----------------------|
----------------------|--------------------------|----------------------|
----------------------|--------------------------|--5------5----3----5--|
--3--------3----5-----|--------------------------|----------------------|
-------------------0--|--------------------------|----------------------|
----------------------|--------------------------|----------------------|



----------------------|----------------------|----------------------|
----------------------|----------------------|----------------------|
--5------5----3----5--|--7------7----5----7--|--7------7----5----7--|
----------------------|----------------------|----------------------|
----------------------|----------------------|----------------------|
----------------------|----------------------|----------------------|



----------------------|----------------------|----------------------|
----------------------|----------------------|----------------------|
--5------5----3----5--|--5------5----3----5--|--7------7----5----7--|
----------------------|----------------------|----------------------|
----------------------|----------------------|----------------------|
----------------------|----------------------|----------------------|



----------------------|--------------------------|--------------------------|
----------------------|--16--------16--18----20--|----18----16----16--18----|
--4------7----4----7--|--------------------------|--------------------------|
----------------------|--------------------------|--------------------------|
----------------------|--------------------------|--------------------------|
----------------------|--------------------------|--------------------------|



----------------------------|--------18------16----|--15--------15--13------18--|
--15--16----15----13----11--|----------------------|--------------------16------|
----------------------------|----------------------|----------------------------|
----------------------------|----------------------|----------------------------|
----------------------------|----------------------|----------------------------|
----------------------------|----------------------|----------------------------|



----16----15------20--19--|----------------19--22--|
--------------------------|------------20----------|
--------------------------|------------------------|
--------------------------|------------------------|
--------------------------|------------------------|
--------------------------|------------------------|


-------------------------|---------------------------|----------------------------|
-------------------------|---------------------------|----------------------------|
--12------10--10------8--|----10--10----------8--10--|--12----10--15----13----12--|
-------------------------|----------------10---------|----------------------------|
-------------------------|---------------------------|----------------------------|
-------------------------|---------------------------|----------------------------|



------------------------|-------------------------|---------------------------|
------------------------|-------------------------|---------------------------|
----10------------------|--12------10--10------8--|----10--10----------8--10--|
----------13----12------|-------------------------|----------------10---------|
------------------------|-------------------------|---------------------------|
------------------------|-------------------------|---------------------------|



----------------------------|----------------13----15--||
----------------------------|----12----15--------------||
--12----10--15----13----12--|--------------------------||
----------------------------|--------------------------||
----------------------------|--------------------------||
----------------------------|--------------------------||

VGJam Tabs Mega Man 2 - "Bubble Man"
Tabs database last modified Tuesday, 01-Nov-2016 19:14:53 UTC.
Copyright © 1999 - 2016 VideoGameJam.com. All rights reserved.