VGJam Tabs Mega Man 2
Mega Man 2
"Bubble Man" - Bass tab
Platform(s):Nintendo Entertainment System
Tabbed by:ddevil
Last modified:2002-12-15
Print it:Original file (.TXT)
MegaMan II \ NES \ BubbleMan's Stage(Bass)

Tabbed by: ddevil@evilgaming.net

---------------------------------------------------------------------------

No easy task, this one.


F||------14----------14--------------|--14--------------14----------14--|
C||----------15--------------15------|------15------15----------15------|
G||----------------------17------13--|----------------------------------|
D||--13----------13------------------|----------13----------13----------|



------12----------12--------------|--12--------------12----------12--|
----------14--------------14------|------14------14----------14------|
----------------------15------12--|----------------------------------|
--12----------12------------------|----------12----------12----------|



------14----------14--------------|--14--------------14----------14--|
----------15--------------15------|------15------15----------15------|
----------------------17------13--|----------------------------------|
--13----------13------------------|----------13----------13----------|



------12----------12--------------|--12--------------12----------12--|
----------14--------------14------|------14------14----------14------|
----------------------15------12--|----------------------------------|
--12----------12------------------|----------12----------12----------|



------14----------14--------------|--14--------------14----------14--|
----------15--------------15------|------15------15----------15------|
----------------------17------13--|----------------------------------|
--13----------13------------------|----------13----------13----------|



------12----------12--------------|--12--------------12----------12--|
----------14--------------14------|------14------14----------14------|
----------------------15------12--|----------------------------------|
--12----------12------------------|----------12----------12----------|



------14----------14--------------|--14--------------14----------14--|
----------15--------------15------|------15------15----------15------|
----------------------17------13--|----------------------------------|
--13----------13------------------|----------13----------13----------|



------12----------12--------------|--12--------------12----------12--|
----------14--------------14------|------14------14----------14------|
----------------------15------12--|----------------------------------|
--12----------12------------------|----------12----------12----------|



------14----------14--------------|--14--------------14----------14--|
----------15--------------15------|------15------15----------15------|
----------------------17------13--|----------------------------------|
--13----------13------------------|----------13----------13----------|



------12----------12--------------|--12--------------12----------12--|
----------14--------------14------|------14------14----------14------|
----------------------15------12--|----------------------------------|
--12----------12------------------|----------12----------12----------|



------14----------14--------------|--14--------------14----------14--|
----------15--------------15------|------15------15----------15------|
----------------------17------13--|----------------------------------|
--13----------13------------------|----------13----------13----------|



------12----------12--------------|--12--------------12----------12--|
----------14--------------14------|------14------14----------14------|
----------------------15------12--|----------------------------------|
--12----------12------------------|----------12----------12----------|



------------------------------|----------------------------|
--12--15--14--12--------------|--------------------12--14--|
------------------15------13--|----15--15------13----------|
------------------------------|----------------------------|



----------------------------------|----------------------------------|
----------------------------------|--11--11--11--11--11--11--11--11--|
--13--13--13--13--13--13--13--13--|----------------------------------|
----------------------------------|----------------------------------|



------------------------------|----------------------------|
--12--15--14--12--------------|--------------------12--14--|
------------------15------13--|----15--15------13----------|
------------------------------|----------------------------|



----------------------------------|------------------------------14--||
------12--15------12--15------12--|--14------11--14------11--14------||
--13----------13----------13------|------13----------13--------------||
----------------------------------|----------------------------------||

VGJam Tabs Mega Man 2 - "Bubble Man"
Tabs database last modified Tuesday, 01-Nov-2016 19:14:53 UTC.
Copyright © 1999 - 2016 VideoGameJam.com. All rights reserved.