VGJam Tabs Mega Man 2
Mega Man 2
"Crash Man" - Guitar tab
Platform(s):Nintendo Entertainment System
Tabbed by:Jeremy Juratovac
Last modified:2001-04-10
Print it:Original file (.TXT)
MEGAMAN 2
Crashman
Tabed by Jeremy Juratovac
E-mail Metallica0zzy@hotmail.com


repeat 2
e|---------------------------------|----------------------------------------|
b|---------------------------------|----------------------------------------|
g|---------------------------------|--------------------5-------------------|
D|--5----2-3-4------5-5-5-0-2-3----|--5---2-3-4--5-5-5-55-------------------|
A|---------------------------------|----------------------------------------|
E|---------------------------------|----------------------------------------|



e|--------------------------h--p-----------|
b|--------12-14-14-14-14--12-14----12------|
g|-12-14-------------------------------14--|
D|-----------------------------------------|
A|-----------------------------------------|
E|-----------------------------------------|

e|-----------------------h--p--------------|
b|----------12-14-14---12-14-----16~~~~~~--|
g|---12-14---------------------------------|
D|-----------------------------------------|
A|-----------------------------------------|
E|-----------------------------------------|


e|---19-19-19-19--15-19-17-------------------------------------------------|
b|--------------------------17-17---19-19----------------------------------|
g|-------------------------------------------------------------------------|
D|-------------------------------------------------------------------------|
A|-------------------------------------------------------------------------|
E|-------------------------------------------------------------------------|


Ps. This is my very own first tab. I like this song.
I know theres missing parts but you can try to figure them out.

VGJam Tabs Mega Man 2 - "Crash Man"
Tabs database last modified Tuesday, 01-Nov-2016 19:14:53 UTC.
Copyright © 1999 - 2016 VideoGameJam.com. All rights reserved.