VGJam Tabs Mega Man 2
Mega Man 2
"Flash Man" - Guitar tab
Platform(s):Nintendo Entertainment System
Tabbed by:Bennett
Last modified:2001-06-03
Print it:Original file (.TXT)
*----------------------This file from Bennett----------------------*
*-------------Have Fun Practising And Getting It Right-------------*
*--If i haven't got it right i'm sorry but it's the best i can do--*

Date: Sunday, 03 of June 2001.
From: Eric (Nick) - "Bennett".
Subject: Flash Man, Mega Man 2(NES).


		Mega Man 2 - Flash Man Stage

*Very Important*		
	1.Normal Tuning E,A,D,G,B,E. Starting with the Biggest String.
        2.Clean/or/Slightly distorted Sound.

Legend: 
* = Harmonic
/ = Slide
h = Hammer-on
p = Pull-off
" = Block strings
% = Let ring strings
| = Indicates there is a new bar
PM... = Palm Mute
R = Repeat Until you don't need to do it anymore.
WH = Whamy Bar (Vibrato w/ Bar)
~ = Vibrato

Starting Riff. (Riff 1).

	Top = Big String
	Bottom = Small String

|-----------------------------|-----------------------------------------| E 
|-----------------------------|-----------------------------------------| A
|-2---5-----------5-----2-0-2-|-----------------------------------------| D
|---4-------2---4---2-0-------|-----------------------------------------| G
|-------3-2---1---------------|-----------------------7-5---------------| B
|-----------------------------|-2223-2223--2223-7-5p3-------------------| E 

Second Riff (Riff 2).

|---------------------------------|----------------------------------| 
|---------------------------------|----------------------------------| 
|-2---------------2---4-4-4-------|-4-2-4---------2------------------| 
|---4-2-4-2-0-2-4---2-------2-0-2-|-------7-6-5-4--------------------| 
|---------------------------------|----------------------------------| 
|---------------------------------|----------------------------------| 

VGJam Tabs Mega Man 2 - "Flash Man"
Tabs database last modified Tuesday, 01-Nov-2016 19:14:53 UTC.
Copyright © 1999 - 2016 VideoGameJam.com. All rights reserved.