VGJam Tabs Mega Man 2
Mega Man 2
"Heat Man" - Guitar tab
Platform(s):Nintendo Entertainment System
Tabbed by:devoid
Last modified:2001-08-15
Print it:Original file (.TXT)
Megaman 2 - Heatman

A more groove-oriented one. In some of the midis you will hear, the open 
strings in the intro descend a whole step when the other notes do. However 
I'm fairly certain that in the game itself, they remain constant. 
Even if they don't, playing it this way will be easier, 
sound cooler, and not even make a significant difference. 
e:------------------------------------------------------
B:------------------------------------------------------
G:------------------------------------------------------
D:---0-0-12-0-10-11-0-12-0------------------------------
A:-------------------------12-0-11-0-10-9-8-------------
E:------------------------------------------------------

e:------------------------------------------------------
B:------------------------------------------------------
G:------------------------------------------------------
D:---0-0-10-0-8-9-0-10-0--------------------------------
A:-------------------------10-0-9-0-8-7-6---------------
E:------------------------------------------------------

e:------------------------------------------------------
B:------------------------------------------------------
G:------------------------------------------------------
D:---0-0-12-0-10-11-0-12-0------------------------------
A:-------------------------12-0-11-0-10-9-8-------------
E:------------------------------------------------------

e:------------------------------------------------------
B:------------------------------------------------------
G:------------------------------------------------------
D:---0-0-10-0-8-9-0-10-0--------------------------------
A:-------------------------10-0-9-0-8-7-6---------------
E:------------------------------------------------------

e:------------------------------------------------------
B:------------------------------------------------------
G:------------------------------------------------------
D:---0-0-12-0-10-11-0-12-0------------------------------
A:-------------------------12-0-11-0-10-9-8-------------
E:------------------------------------------------------

e:------------------------------------------------------
B:------------------------------------------------------
G:------------------------------------------------------
D:---0-0-10-0-8-9-0-10-0--------------------------------
A:-------------------------10-0-9-0-8-7-6---------------
E:------------------------------------------------------

e:------------------------------------------------------
B:------------------------------------------------------
G:------------------------------------------------------
D:---0-0-12-0-10-11-0-12-0------------------------------
A:-------------------------12-0-11-0-10-9-8-------------
E:------------------------------------------------------

e:------------------------------------------------------
B:------------------------------------------------------
G:--------------7-7-------------7-----------------------
D:---10-10----7-----7-7-10-10-7----------drum roll------
A:------------------------------------------------------
E:------------------------------------------------------

Next is the beginning of the second half. What you hear 
is dueling guitars, 
but if you don't have a second guy, 
just follow the top line. Or you could 
try to play both 
lines yourself- it's not impossible; it just doesn't sound 
as good
e:--------------------------------------------------------
B:---10----10--10--10--8--6--8----8--8--10--8-------------
G:---10----10--10--10--9--7--9----9--9--10--9--9--10------
D:---------------------------------------------10-12------
A:--------------------------------------------------------
E:--------------------------------------------------------

e:---------10--------------------------------17-------------------------
B:-------10---10--------------------15-151718--15-----15-17-18-17-15----
G:-----10--------12h14-12--------------------------17----------------17-
D:---12-------------------10h12h14--------------------------------------
A:----------------------------------------------------------------------
E:----------------------------------------------------------------------

e:--------------------------------------------------------
B:---10----10--10--10--8--6--8----8--8--10--8-------------
G:---10----10--10--10--9--7--9----9--9--10--9--9--10------
D:---------------------------------------------10-12------
A:--------------------------------------------------------
E:--------------------------------------------------------

e:---------10-----------------------------------------------------------
B:-------10---10----------------------17-17----15-18-18-15-15-17-15-18--
G:-----10--------12h14-12-----------------------------------------------
D:---12-------------------10h12h14--------------------------------------
A:----------------------------------------------------------------------
E:----------------------------------------------------------------------

VGJam Tabs Mega Man 2 - "Heat Man"
Tabs database last modified Tuesday, 01-Nov-2016 19:14:53 UTC.
Copyright © 1999 - 2016 VideoGameJam.com. All rights reserved.