VGJam Tabs Mega Man 2
Mega Man 2
"Metal Man" - Guitar tab
Platform(s):Nintendo Entertainment System
Tabbed by:Cryptopsy911
Last modified:2002-07-21
Print it:Original file (.TXT)
Hear it:MIDI file
Tabbed By: Cryptopsy911
Song: Megaman 2 - Metal Man's Stage
System: NES

Well this isn't at all the enitre song, but it's the main theme at least...
I tabbed this song an octave lower than the original


-------------------------------------------|
------6------------------------------------|
-3h6-----3~----3--5-/-6-\-5--3----3p1h3----|   x3
-------------------------------------------|
-------------------------------------------|
-------------------------------------------|

------------------------|
------------------------|
-6~~--8~~---6--6--8~~---|
-8---10-----8--8--10~~--|
------------------------|
------------------------|
Repeat x1



---------------------|
---------------------|
-3-3-1-3--1-3~~----1-|
-----------------3---|
---------------------|
---------------------|

----------------------------|
----------------------1h2p1-|
-3-3-1-3--1-3~----1h3-------|
----------------------------|
----------------------------|
----------------------------|

--------------------------------------------|
----/6--4~~---------------------------------|
-3-----------6--5~~--6--5--3-3-1-3--1-3~~---|
--------------------------------------------|
--------------------------------------------|
--------------------------------------------|

~=Vibrato
H= Hammer on
P= Pull off
/= Slide up to note
\= Slide down to note

Have fun!

VGJam Tabs Mega Man 2 - "Metal Man"
Tabs database last modified Tuesday, 01-Nov-2016 19:14:53 UTC.
Copyright © 1999 - 2016 VideoGameJam.com. All rights reserved.