VGJam Tabs Mega Man 2
Mega Man 2
"Quick Man" - Guitar tab
Platform(s):Nintendo Entertainment System
Tabbed by:ddevil
Last modified:2002-12-15
Print it:Original file (.TXT)
Hear it:MIDI file
MegaMan II / NES / QuickMan's Stage(Guitar 1)

Tabbed by: ddevil@evilgaming.net

----------------------------------------------------------------------------------------

Have fun. I still have trouble playing this one.

E||-----8----8-----8-------8--|-----8----8-----8-------8--|-----6----6-----6-------6--|
B||--8----------8-----8-------|--8----------8-----8-------|--6----------6-----6-------|
G||-------8-------------8-----|-------8-------------8-----|-------7-------------7-----|
D||---------------------------|---------------------------|---------------------------|
A||---------------------------|---------------------------|---------------------------|
E||---------------------------|---------------------------|---------------------------|



-----6----6-----6-------6--|-----8----8-----8-------8--|-----8----8-----8-------8--|
--6----------6-----6-------|--8----------8-----8-------|--8----------8-----8-------|
-------7-------------7-----|-------8-------------8-----|-------8-------------8-----|
---------------------------|---------------------------|---------------------------|
---------------------------|---------------------------|---------------------------|
---------------------------|---------------------------|---------------------------|



-----6----6-----6-------6--|--------1--6-10-13-----------|-------------------|
--6----------6-----6-------|------3----------------------|-------------------|
-------7-------------7-----|--3-5------------------3--4--|--5----------------|
---------------------------|-----------------------------|-------------------|
---------------------------|-----------------------------|-------------------|
---------------------------|-----------------------------|-------------------|



---------------------|-----------------------|-----------------------|-------------------|
----------3---4---6--|--3---4---3--1------1--|--3-1------------------|-------------------|
---------------------|-----------------------|------3------3----4----|--5----------------|
---------------------|-----------------------|-----------------------|-------------------|
---------------------|-----------------------|-----------------------|-------------------|
---------------------|-----------------------|-----------------------|-------------------|



---------------------|-----------15-13-11-13-11-10-11-10-|
----------3---4---6--|--8--------------------------------|
---------------------|-----------------------------------|
---------------------|-----------------------------------|
---------------------|-----------------------------------|
---------------------|-----------------------------------|



--8-10-8-6-8-6-4-6-4-3-4-3-1-3-1---|-------------------8--|--6-------------6----|
---------------------------------4-|--8--------8---9------|-----------8---------|
-----------------------------------|----------------------|---------------------|
-----------------------------------|----------------------|---------------------|
-----------------------------------|----------------------|---------------------|
-----------------------------------|----------------------|---------------------|



--7--------7---10---13--|--11--------11--10--8--6--|------------------------|
------------------------|--------------------------|--9--------9------------|
------------------------|--------------------------|--------------12--10----|
------------------------|--------------------------|------------------------|
------------------------|--------------------------|------------------------|
------------------------|--------------------------|------------------------|



--------------------------|-----13----------13----------13----------13-------|
--11--------11------------|--13----13----13----13----13----13----13----13----|
----------------13--12----|-----------13----------13----------13----------13-|
--------------------------|--------------------------------------------------|
--------------------------|--------------------------------------------------|
--------------------------|--------------------------------------------------|



----------------------------11-12-||
--13----13---13--13-13--13--------||
----------------------------------||
----------------------------------||
----------------------------------||
----------------------------------||



MegaMan II \ NES \ QuickMan's Stage(Guitar 2)

Tabbed by: ddevil@evilgaming.net

-------------------------------------------------------------------------------------

Bars 1-8 mirror Guitar 1 but are slightly delayed for an echo effect(check
 the NSF).

E||-------8----8-----8-------|--8-----8----8-----8-------|--8-----6----6-----6-------|
B||----8----------8-----8----|-----8----------8-----8----|-----6----------6-----6----|
G||---------8-------------8--|----------8-------------8--|----------7-------------7--|
D||--------------------------|---------------------------|---------------------------|
A||--------------------------|---------------------------|---------------------------|
E||--------------------------|---------------------------|---------------------------|



--6-----6----6-----6-------|--6-----8----8-----8-------|--8-----8----8-----8-------|
-----6----------6-----6----|-----8----------8-----8----|-----8----------8-----8----|
----------7-------------7--|----------8-------------8--|----------8-------------8--|
---------------------------|---------------------------|---------------------------|
---------------------------|---------------------------|---------------------------|
---------------------------|---------------------------|---------------------------|



--8-----6----6-----6-------|--6-----------6-10-13-------|-----8----8-----8-------8--|
-----6----------6-----6----|---------3-6----------------|--8----------8-----8-------|
----------7-------------7--|-----3-5--------------------|-------8-------------8-----|
---------------------------|----------------------------|---------------------------|
---------------------------|----------------------------|---------------------------|
---------------------------|----------------------------|---------------------------|



-----8----8-----8-------8--|-----6----6-----6-------6--|-----6----6-----6-------6--|
--8----------8-----8-------|--6----------6-----6-------|--6----------6-----6-------|
-------8-------------8-----|-------7-------------7-----|-------7-------------7-----|
---------------------------|---------------------------|---------------------------|
---------------------------|---------------------------|---------------------------|
---------------------------|---------------------------|---------------------------|



-----8----8-----8-------8--|-----8----8-----8-------8--|
--8----------8-----8-------|--8----------8-----8-------|
-------8-------------8-----|-------8-------------8-----|
---------------------------|---------------------------|
---------------------------|---------------------------|
---------------------------|---------------------------|



---6-------6----13-11-13-11-10-11-|--10-8-10-8-6-8-6-4-6-4-3-4-3-1-3-1-|
--------6-------------------------|------------------------------------|
------7---------------------------|------------------------------------|
----------------------------------|------------------------------------|
----------------------------------|------------------------------------|
----------------------------------|------------------------------------|



-------------------3--|---------------------|---------------7---10--|
--4--------4---6------|--3--------3----8----|--8--------8-----------|
----------------------|---------------------|-----------------------|
----------------------|---------------------|-----------------------|
----------------------|---------------------|-----------------------|
----------------------|---------------------|-----------------------|



--8--------11--10---8-6--|----------------------|--3--------3--1-------|
-------------------------|--6--------6--4-------|-----------------4----|
-------------------------|-----------------6----|----------------------|
-------------------------|----------------------|----------------------|
-------------------------|----------------------|----------------------|
-------------------------|----------------------|----------------------|



----8--------8--------8--------8------|--------------------------||
--9---9----9---9----9---9----9---9----|--9----9---9--9-9--9--8-9-||
--------10-------10-------10-------10-|--------------------------||
--------------------------------------|--------------------------||
--------------------------------------|--------------------------||
--------------------------------------|--------------------------||

VGJam Tabs Mega Man 2 - "Quick Man"
Tabs database last modified Tuesday, 01-Nov-2016 19:14:53 UTC.
Copyright © 1999 - 2016 VideoGameJam.com. All rights reserved.