VGJam Tabs Mega Man 2
Mega Man 2
"Quick Man" - Bass tab
Platform(s):Nintendo Entertainment System
Tabbed by:ddevil
Last modified:2002-12-15
Print it:Original file (.TXT)
Hear it:MIDI file
MegaMan II / NES / QuickMan's Stage(Bass)

Tabbed by: ddevil@evilgaming.net

-----------------------------------------------------------------------------------------

Full step down, Dropped-C for this one.

F||---------------------------|---------------------------|---------------------------|
C||--0-----0--0-0--0-------0--|--0-----0--0-0--0-------0--|---------------------------|
G||-----0-------------0-------|-----0-------------0-------|--3-----3--3-3--3-------3--|
C||---------------------3-----|---------------------3-----|-----5-------------5-2-----|



---------------------------|---------------------------|---------------------------|
---------------------------|--0-----0--0-0--0-------0--|--0-----0--0-0--0-------0--|
--3-----3--3-3--3-------3--|-----0-------------0-------|-----0-------------0-------|
-----5-------------5-2-----|---------------------3-----|---------------------3-----|



---------------------------|------------------|---------------------------|
---------------------------|------------------|--0-----0--0-0--0-------0--|
--3-----3--3-3--3-------3--|------------------|-----0-------------0-------|
-----5-------------5-2-----|------------------|---------------------3-----|



---------------------------|---------------------------|---------------------------|
--0-----0--0-0--0-------0--|---------------------------|---------------------------|
-----0-------------0-------|--3-----3--3-3--3-------3--|--3-----3--3-3--3-------3--|
---------------------3-----|-----5-------------5-2-----|-----5-------------5-2-----|



---------------------------|---------------------------|---------------------------|
--0-----0--0-0--0-------0--|--0-----0--0-0--0-------0--|---------------------------|
-----0-------------0-------|-----0-------------0-------|--3-----3--3-3--3-------3--|
---------------------3-----|---------------------3-----|-----5-------------5-2-----|



---------------------------|----------------------3------|-----------0----------5------|
---------------------------|--------0--3------0--------0-|--------2---------2--------2-|
--3-----3--3-3--3-------3--|--1---1------1--1---1----1---|--3---3------3--3---3----3---|
-----5-------------5-2-----|-----------------------------|-----------------------------|



-----------0----------6------|-----------2----------7----2-|-----------------------------|
--------2---------2--------2-|--0---0-3----0--0-3-0----3---|----------------------1------|
--4---4------4--4---4----4---|-----------------------------|-----------1-----------------|
-----------------------------|-----------------------------|--1---1-5----1--1-5-1----5-1-|



-----------------------------|----------------------0------|--------------------------||
----------------------3------|-----------0-----------------|--------------------------||
--------0--3------0--------0-|--------1---------1------1---|----------------------0-3-||
--3---3------3--3---3----3---|--5---5------5--5---5------5-|--5----5---5--5--5-5------||

VGJam Tabs Mega Man 2 - "Quick Man"
Tabs database last modified Tuesday, 01-Nov-2016 19:14:53 UTC.
Copyright © 1999 - 2016 VideoGameJam.com. All rights reserved.