VGJam Tabs Mega Man 2
Mega Man 2
"Skull Castle (Dr. Wily Stage 1)" - Guitar tab
Platform(s):Nintendo Entertainment System
Tabbed by:devoid
Last modified:2001-08-15
Print it:Original file (.TXT)
Megaman 2 - Skull Castle

Well, here it is, the "Beethoven's 5th" of video game music. 
I've structured this exactly how you would hear it on the game, 
but I'm leaving it up to the players to figure out which leads 
go over which rhythms. This particular tune sounds best with 
lots of crunch distortion.

Main: 
e:--------------------------------------------------------
B:-----555-555------5-555-----9-7-9---555-555-----9-7-5-7-
G:---6---------6--66------6-------------------6-----------
D:--------------------------------------------------------
A:--------------------------------------------------------
E:--------------------------------------------------------

e:------------------------------4-7-6--------4-7-6---7-9--
B:---777-777-----9-7-5-4----------------------------------
G:-----------8-----------6----6---------6--6--------------
D:--------------------------------------------------------
A:--------------------------------------------------------
E:--------------------------------------------------------

e:------------------------------------------------------
B:---555-555------5-555-----9-7-9---555-555-----9-7-5-7-
G:-----------6--66------6-------------------6-----------
D:------------------------------------------------------
A:------------------------------------------------------
E:------------------------------------------------------

e:------------------------------4-7-6--------4-7-6---7-9hold-
B:---777-777-----9-7-5-4-------------------------------------
G:-----------8-----------6----6---------6--6-----------------
D:-----------------------------------------------------------
A:-----------------------------------------------------------
E:-----------------------------------------------------------
This leads into...

"Solo" #1
e:------12---------------------------------------------------
B:---12----14-12-14-12--12-14---------------------12-14------
G:-----------------------------13h14p13--------13------------
D:--------------------------------------14--14---------------
A:-----------------------------------------------------------
E:-----------------------------------------------------------

e:------12---------------------------------12--16------------
B:---12----14-12-14-12--12----12-13--13-13-------------------
G:-------------------------13--------------------------------
D:-----------------------------------------------------------
A:-----------------------------------------------------------
E:-----------------------------------------------------------

Lead
e:---------7---------------7---------------------------------
B:---9---7---10-9-10-9---7---10-9-10-5---5h7h9-4-------------
G:-------------------------------------------------6---------
D:-----------------------------------------------------------
A:-----------------------------------------------------------
E:-----------------------------------------------------------

"Solo" #2
e:----------------12--16-14-12-----------------12--12-14-12-
B:---14--14-12-14--------------16-14--14-12-14--------------
G:----------------------------------------------------------
D:----------------------------------------------------------
A:----------------------------------------------------------
E:----------------------------------------------------------

e:----------------16--14--12--------------------------------
B:---16--16-14-12-------------16-16h17p16-(14)--------------
G:----------------------------------------------------------
D:----------------------------------------------------------
A:----------------------------------------------------------
E:----------------------------------------------------------

Play this again
e:------12---------------------------------------------------
B:---12----14-12-14-12--12-14---------------------12-14------
G:-----------------------------13h14p13--------13------------
D:--------------------------------------14--14---------------
A:-----------------------------------------------------------
E:-----------------------------------------------------------

e:------12---------------------------------12--16------------
B:---12----14-12-14-12--12----12-13--13-13-------------------
G:-------------------------13--------------------------------
D:-----------------------------------------------------------
A:-----------------------------------------------------------
E:-----------------------------------------------------------

Wrapping it up(add second guitar for more 'victorious' sound, 
otherwise 
just play the top line)
e:---------------------9-7---------------------------------
B:---------------------9-9-10-9-7---7--99-9--7-99-9--7-----
G:---9---9--9--8--9--------11-9-8---8--99-9--8-99-9--8-----
D:---11--11-11-9-11----------------------------------------
A:---------------------------------------------------------
E:---------------------------------------------------------

e:--------------------9-7------------------------------------------------
B:--------------------9-9-10-9-7-----------------------------------------
G:---9---9--9--8--9-------11-9-8---8h9p8---------------------------------
D:---11--11-11-9-11----------------------(11)----------------------------
A:---------------------------------161415-16--141516-141516-141516-1415--
E:-----------------------------------------------------------------------

VGJam Tabs Mega Man 2 - "Skull Castle (Dr. Wily Stage 1)"
Tabs database last modified Tuesday, 01-Nov-2016 19:14:53 UTC.
Copyright © 1999 - 2016 VideoGameJam.com. All rights reserved.