VGJam Tabs Mega Man 2
Mega Man 2
"Skull Castle (Dr. Wily Stage 1)" - Guitar tab
Platform(s):Nintendo Entertainment System
Tabbed by:Smeg
Last modified:2003-02-18
Print it:Original file (.TXT)
Mega Man 2 (NES) - Skull Castle

Composed by Manami Matsumae, "Ogeretsu-kun", "Ietel" and "Yuuki-chan's Papa"

Tabbed by Smeg (smeg@fefea.org)


Barlines are almost certainly inaccurate.


 Two guitars:

  e|---------------------------------------------------------|
  b|-------------------------------------------------9-----9-|
  g|----9--9--9---9--9--9------------9---9--9--9-------11----|
  d|-11-------------------11--11-11--------------11----------|
  a|---------------------------------------------------------|
  E|---------------------------------------------------------|
   |                                                         |
   |                                                         |
  e|---------------------------------------------------------|
  b|---------------------------------------------------------|
  g|---------------------------------------------------------|
  d|---11-11-11--11-11-11-----------11--11-11-11----14-13-14-|
  a|----------------------11--11-11--------------11----------|
  E|---------------------------------------------------------|


  e|-----------------------------------|
  b|------------------------9----------|
  g|--9--9--9---9--9--9-------11--9-11-|
  d|--------------------11-------------|
  a|-----------------------------------|
  E|-----------------------------------|
   |                                   |
   |                                   |
  e|-----------------------------------|
  b|-----------------------------------|
  g|-----------------------------------|
  d|-11-11-11--11-11-11----14-13-11-13-|
  a|--------------------11-------------|
  E|-----------------------------------|


  e|------------------------------------|
  b|-------------------------9----------|
  g|-11-11-11--11-11-11--8-----11--9--8-|
  d|------------------------------------|
  a|------------------------------------|
  E|------------------------------------|
   |                                    |
   |                                    |
  e|------------------------------------|
  b|------------------------------------|
  g|------------------------------------|
  d|-13-13-13--13-13-13-----14-13-11----|
  a|--------------------14-----------14-|
  E|------------------------------------|


  e|---------------------------------11-12-|
  b|--------9-12-11---------9-12-11--------|
  g|---------------------------------------|
  d|-11-11-----------11-11-----------------|
  a|---------------------------------------|
  E|---------------------------------------|
   |                                       |
   |                                       |
  e|---------------------------------------|
  b|----------12-11-----------12-11--12-14-|
  g|-------13--------------13--------------|
  d|-11-11-----------11-11-----------------|
  a|---------------------------------------|
  E|---------------------------------------|


  e|-------------------------------------------------------|
  b|-----------------------------------------------9-----9-|
  g|--9--9--9---9--9--9------------9---9--9--9-------11----|
  d|--------------------11--11-11--------------11----------|
  a|-------------------------------------------------------|
  E|-------------------------------------------------------|
   |                                                       |
   |                                                       |
  e|-------------------------------------------------------|
  b|-------------------------------------------------------|
  g|-------------------------------------------------------|
  d|-11-11-11--11-11-11-----------11--11-11-11----14-13-14-|
  a|--------------------11--11-11--------------11----------|
  E|-------------------------------------------------------|


  e|-----------------------------------|
  b|------------------------9----------|
  g|--9--9--9---9--9--9-------11--9-11-|
  d|--------------------11-------------|
  a|-----------------------------------|
  E|-----------------------------------|
   |                                   |
   |                                   |
  e|-----------------------------------|
  b|-----------------------------------|
  g|-----------------------------------|
  d|-11-11-11--11-11-11----14-13-11-13-|
  a|--------------------11-------------|
  E|-----------------------------------|


  e|------------------------------------|
  b|-------------------------9----------|
  g|-11-11-11--11-11-11--8-----11--9--8-|
  d|------------------------------------|
  a|------------------------------------|
  E|------------------------------------|
   |                                    |
   |                                    |
  e|------------------------------------|
  b|------------------------------------|
  g|------------------------------------|
  d|-13-13-13--13-13-13-----14-13-11----|
  a|--------------------14-----------14-|
  E|------------------------------------|


  e|-------------------------------------9-|
  b|--------9-12-11---------9-12-11--12----|
  g|---------------------------------------|
  d|-11-11-----------11-11-----------------|
  a|---------------------------------------|
  E|---------------------------------------|
   |                                       |
   |                                       |
  e|---------------------------------------|
  b|----------12-11-----------12-11--12-14-|
  g|-------13--------------13--------------|
  d|-11-11-----------11-11-----------------|
  a|---------------------------------------|
  E|---------------------------------------|


  e|----12--9-----9---------9------------------------|
  b|-12-------12----12--12------9-10--9---------9-12-|
  g|-------------------------------------9---9-------|
  d|-------------------------------------------------|
  a|-------------------------------------------------|
  E|-------------------------------------------------|
   |                                                 |
   |                                                 |
  e|----12-------------------------------------------|
  b|-12----14-12-14-12--12-14---------------------12-|
  g|---------------------------13-14-13--------13----|
  d|------------------------------------14--14-------|
  a|-------------------------------------------------|
  E|-------------------------------------------------|


  e|--9-----12--9-----9--------------------------16-|
  b|-----12-------12----12--12----12-13-13-13-16----|
  g|---------------------------13-------------------|
  d|------------------------------------------------|
  a|------------------------------------------------|
  E|------------------------------------------------|
   |                                                |
   |                                                |
  e|--------12-----------------------------------16-|
  b|-14--12----14-12-14-12--12----12-13-13-13-16----|
  g|---------------------------13-------------------|
  d|------------------------------------------------|
  a|------------------------------------------------|
  E|------------------------------------------------|


  e|------------------------------------------------|
  b|-----------------------------------------9----9-|
  g|----9-9-9---9-9-9-----------9--9-9-9-------11---|
  d|------------------11--11-11----------11---------|
  a|------------------------------------------------|
  E|------------------------------------------------|
   |                                                |
   |                                                |
  e|------------------------------------------------|
  b|------------------------------------------------|
  g|------------------------------------------------|
  d|-----------------------9------------------------|
  a|-11-----------------9---------12-----11-12---11-|
  E|------------------------------------------------|


  e|--------------------------------|
  b|------------------9-------------|
  g|-9-9-9--9-9-9-------11--9-11----|
  d|--------------11----------------|
  a|--------------------------------|
  E|--------------------------------|
   |                                |
   |                                |
  e|--------------------------------|
  b|--------------------------------|
  g|--------------------------------|
  d|------------------9-------------|
  a|---------------9----12-11-12----|
  E|-----------------------------12-|


  e|-------------------------------------|
  b|--------------------------9----------|
  g|-11-11-11--11-11-11-8-------11--9--8-|
  d|-------------------------------------|
  a|-------------------------------------|
  E|-------------------------------------|
   |                                     |
   |                                     |
  e|-------------------------------------|
  b|-------------------------------------|
  g|-------------------------------------|
  d|-------------------------------------|
  a|--------------------9-11-------------|
  E|-----------------12------11----------|


  e|---------------------------------11-12-|
  b|--------9-12-11---------9-12-11--------|
  g|---------------------------------------|
  d|-11-11-----------11-11-----------------|
  a|---------------------------------------|
  E|---------------------------------------|
   |                                       |
   |                                       |
  e|---------------------------------------|
  b|----------12-11-----------12-11--12-14-|
  g|-------13--------------13--------------|
  d|-11-11-----------11-11-----------------|
  a|---------------------------------------|
  E|---------------------------------------|


  e|-------------------------------------------------------|
  b|-----------------------------------------------9-----9-|
  g|--9--9--9---9--9--9------------9---9--9--9-------11----|
  d|--------------------11--11-11--------------11----------|
  a|-------------------------------------------------------|
  E|-------------------------------------------------------|
   |                                                       |
   |                                                       |
  e|----------------------------------12-------16-14-12----|
  b|-----------------14--12-14--------------------------16-|
  g|-------------------------------------------------------|
  d|-------------------------------------------------------|
  a|-------------------------------------------------------|
  E|-------------------------------------------------------|


  e|----------------------------------------|
  b|--------------------------9-------------|
  g|----9--9--9---9--9--9-------11--9-11----|
  d|----------------------11----------------|
  a|----------------------------------------|
  E|----------------------------------------|
   |                                        |
   |                                        |
  e|----------------------------12-12-14-12-|
  b|-14----------------14-12-14-------------|
  g|----------------------------------------|
  d|----------------------------------------|
  a|----------------------------------------|
  E|----------------------------------------|


  e|-----------------------------------------|
  b|------------------------------9----------|
  g|----11-11-11--11-11-11--8-------11--9--8-|
  d|-----------------------------------------|
  a|-----------------------------------------|
  E|-----------------------------------------|
   |                                         |
   |                                         |
  e|-----------------------------16-14-12----|
  b|-16-----------------16-14-12----------16-|
  g|-----------------------------------------|
  d|-----------------------------------------|
  a|-----------------------------------------|
  E|-----------------------------------------|


  e|------------------------------------11-12-|
  b|-----------9-12-11---------9-12-11--------|
  g|------------------------------------------|
  d|-11----11-----------11-11-----------------|
  a|------------------------------------------|
  E|------------------------------------------|
   |                                          |
   |                                          |
  e|-------12---------------------------------|
  b|----16----16-14--------------12-11--12-14-|
  g|--------------------------13--------------|
  d|--------------------11-11-----------------|
  a|------------------------------------------|
  E|------------------------------------------|


  e|--9----12--9-----9---------9------------------------|
  b|----12-------12----12--12------9-10--9---------9-12-|
  g|----------------------------------------9---9-------|
  d|----------------------------------------------------|
  a|----------------------------------------------------|
  E|----------------------------------------------------|
   |                                                    |
   |                                                    |
  e|-------12-------------------------------------------|
  b|-14-12----14-12-14-12--12-14---------------------12-|
  g|------------------------------13-14-13--------13----|
  d|---------------------------------------14--14-------|
  a|----------------------------------------------------|
  E|----------------------------------------------------|


  e|--9-----12--9-----9--------------------------16-|
  b|-----12-------12----12--12----12-13-13-13-16----|
  g|---------------------------13-------------------|
  d|------------------------------------------------|
  a|------------------------------------------------|
  E|------------------------------------------------|
   |                                                |
   |                                                |
  e|--------12-----------------------------------16-|
  b|-14--12----14-12-14-12--12----12-13-13-13-16----|
  g|---------------------------13-------------------|
  d|------------------------------------------------|
  a|------------------------------------------------|
  E|------------------------------------------------|


  e|----------------------------------------------------------|
  b|----------------------------------------------------------|
  g|-------------------16-14-13-------13-13-13----13-13-13----|
  d|-14-14-14-13-14-------------16-16----------16----------16-|
  a|----------------------------------------------------------|
  E|----------------------------------------------------------|
   |                                                          |
   |                                                          |
  e|----------------------------------------------------------|
  b|----------------10----------------------------------------|
  g|-------------------11-11--9--8--8--9--9--9--8--9--9--9--8-|
  d|-11-11-11--9-11-------------------------------------------|
  a|----------------------------------------------------------|
  E|----------------------------------------------------------|


  e|--------------------------------------------|
  b|----------------14--------------------------|
  g|-------------------16-14-13-----------------|
  d|-14-14-14-13-14-------------16--13-14-13----|
  a|-----------------------------------------16-|
  E|--------------------------------------------|
   |                                            |
   |                                            |
  e|--------------------------------------------|
  b|----------------10--------------------------|
  g|-------------------11-11--9--8--------------|
  d|-11-11-11--9-11------------------9-11--9----|
  a|-----------------------------------------11-|
  E|--------------------------------------------|

 Repeat from the top.

VGJam Tabs Mega Man 2 - "Skull Castle (Dr. Wily Stage 1)"
Tabs database last modified Tuesday, 01-Nov-2016 19:14:53 UTC.
Copyright © 1999 - 2016 VideoGameJam.com. All rights reserved.