VGJam Tabs Mega Man 3
Mega Man 3
"Boss Select screen" - Guitar, Bass tab
Platform(s):Nintendo Entertainment System
Tabbed by:Blackbird
Last modified:2000-01-23
Print it:Original file (.TXT)
Hear it:MIDI file
#-------------------------------PLEASE NOTE------------------------------------#
#This file is the author's own work and represents their interpretation of the #
#song. You may only use this file for private study, scholarship, or research. #
#------------------------------------------------------------------------------#

Title: MegaMan 3 Boss Select Screen Theme
Tablature by Blackbird (blk_bird@yahoo.com)

    From a MIDI file by someone unknown. This is simple once you get the
fingering (and you can do the bass part in your sleep).

Lead Guitar Part
================
E |---------------|--------------|---------------|--------------------------|
B |----------0----|--------------|----------0----|----------------------2---|
G |-1-1---1-----3-|-----1-1------|-1-1---1-----3-|----------1--1---4--------|
D |-----4---------|--4-------1-4-|-----4---------|---4----------------------|
A |---------------|--------------|---------------|--------------------------|
E |---------------|--------------|---------------|--------------------------|

|---------------------|---------2--4-|-----4-2------|-----------------------|
|-4------2-0----------|---4-2-1------|---4-----2--4-|-----------0-----------|
|------------1--------|--------------|--------------|-------1-3----3--1-----|
|---------------------|--------------|--------------|--------------------4--|
|---------------------|--------------|--------------|-----------------------|
|---------------------|--------------|--------------|-----------------------|

Rhythym Guitar Part
===================
        7x
E |------------|-----------------------|
B |------------|-----------------------|
G |*----------*|-----------1-----------|
D |*--4--1----*|-------1-4----4--1-----|
A |---------4--|--------------------4--|
E |------------|-----------------------|

Bass Part
=========
         4x             3x
G |--------------|--------------|--------------|
D |*------------*|*------------*|--------------|
A |*------------*|*------------*|--------------|
E |-4-4--4--4--4-|-0-0--0--0--0-|--0--2-2--2-2-|

------------------------------------------------------------------
Ewen "Blackbird" Cluney                         blk_bird@yahoo.com
Blackbird's Domain            http://www.geocities.com/tokyo/6127/
Knight Kevlar of the Immortal Frog        Silver Knight of Mihoshi
              "Be nice to me; I might just develop 
             psychokinetic powers and destroy Tokyo!"
------------------------------------------------------------------

VGJam Tabs Mega Man 3 - "Boss Select screen"
Tabs database last modified Tuesday, 01-Nov-2016 19:14:53 UTC.
Copyright © 1999 - 2016 VideoGameJam.com. All rights reserved.