VGJam Tabs Mega Man 3
Mega Man 3
"Intro" - Guitar tab
Platform(s):Nintendo Entertainment System
Tabbed by:THE699375
Last modified:1999-08-14
Print it:Original file (.TXT)
Hear it:MIDI file
Track 5:
Time Signature: 4/4.


|--------------| |-------0-| |------------| |------| |---------------------|
|G--2--------0-| |-1--2----| |-4--2--0--3-| |-2--0-| |-1--2----------------|
|T--------2----| |---------| |------------| |------| |-------2-----------2-|
|A-----4-------| |---------| |------------| |------| |----------4--2--4----|
|B-------------| |---------| |------------| |------| |---------------------|
|--------------| |---------| |------------| |------| |---------------------|


|---------------| |-------------7--8-| |-7--5--2--5--5--7-| |---------------
|-------0--0--1-| |-0----------------| |------------------| |----------0--2-
|----2----------| |----2-----2-------| |------------------| |----1--2-------
|-4-------------| |-------4----------| |------------------| |-4-------------
|---------------| |------------------| |------------------| |---------------
|---------------| |------------------| |------------------| |---------------


-0--2-| |----0--2--5--7-| |-5--2--0--1--2-| |-1-----0--2-| |-8--9-------------
------| |-2-------------| |---------------| |----2-------| |-------10---------
------| |---------------| |---------------| |------------| |----------11------
------| |---------------| |---------------| |------------| |-------------11---
------| |---------------| |---------------| |------------| |----------------9-
------| |---------------| |---------------| |------------| |------------------


------| |-------0--2--5--7-| |-8--9--7--5--2--5--4-| |----1--4--7--9--13| |---
------| |-0--2-------------| |---------------------| |-2----------------| |---
-1--2-| |------------------| |---------------------| |------------------| |---
------| |------------------| |---------------------| |------------------| |-11
------| |------------------| |---------------------| |------------------| |---
------| |------------------| |---------------------| |------------------| |---


---------------------------| |------------------------------| |---------------
-2--0--2--0--2--0--2--2--0-| |-2--2--0--2--0--2--0--2--2--0-| |-------------0-
---------------------------| |------------------------------| |-2-----1--2----
---------------------------| |------------------------------| |----4----------
---------------------------| |------------------------------| |---------------
---------------------------| |------------------------------| |---------------


----------------------0----------| |-4--2-----4--2-----4--2-----4--2-----4--2-
-------0--2-----0--2-----3--2--0-| |-------2--------2--------2--------2-------
-1--2--------2-------------------| |------------------------------------------
---------------------------------| |------------------------------------------
---------------------------------| |------------------------------------------
---------------------------------| |------------------------------------------


-1----| |----------0----| |----0----------| |----------0----| |----0--------0-
----2-| |-0--2--0-----4-| |-0-----4--2--0-| |-0--2--0-----4-| |-0-----4--2----
------| |---------------| |---------------| |---------------| |---------------
------| |---------------| |---------------| |---------------| |---------------
------| |---------------| |---------------| |---------------| |---------------
------| |---------------| |---------------| |---------------| |---------------


Track 6:
Time Signature: 4/4.


|--------------| |------------| |---------------| |---------| |---------------

|G--------2--0-| |------------| |---------------| |---------| |---------------
|T--2----------| |-1--2-------| |-------------2-| |-1--2----| |-2-------------
|A-----4-------| |-------4--2-| |-1--1--2--4----| |-------4-| |----4-----2----
|B-------------| |------------| |---------------| |---------| |-------4-----4-
|--------------| |------------| |---------------| |---------| |---------------


| |------------| |---| |------| |---| |---| |---| |---| |---| |---| |---| |---
| |----2-----0-| |---| |------| |---| |---| |-2-| |---| |---| |-0-| |-2-| |-2-
| |-2-----2----| |---| |-2--2-| |---| |-2-| |---| |---| |---| |---| |---| |---
| |------------| |-4-| |------| |-4-| |---| |---| |-2-| |-4-| |---| |---| |---
| |------------| |---| |------| |---| |---| |---| |---| |---| |---| |---| |---
| |------------| |---| |------| |---| |---| |---| |---| |---| |---| |---| |---


| || || || || |------------| |---------| |------------| |---------| |---------
| || || || || |------------| |---------| |------------| |---------| |---------
| || || || || |------------| |---------| |------------| |---------| |---------
| || || || || |-4--4--4--4-| |-4--4--4-| |-4--4--4--4-| |-4--4--4-| |-2--2----
| || || || || |------------| |---------| |------------| |---------| |-------4-
| || || || || |------------| |---------| |------------| |---------| |---------


---------------| |------------------------| |------------------------| |------
---------------| |------------------------| |------------------------| |------
---------------| |------------------------| |------------------------| |------
----2--2-------| |-2--2--------2--2-------| |-4--4--2--2--4--4--2--2-| |-4--4-
-4--------4--4-| |-------4--4--------4--4-| |------------------------| |------
---------------| |------------------------| |------------------------| |------


------------------| |-5-| |-4-| |-9-| |-7--4-| |-0-| |---| |---| || |---------
------------------| |---| |---| |---| |------| |---| |-4-| |-2-| || |---------
-1--1-------------| |---| |---| |---| |------| |---| |---| |---| || |---------
-------4--4--2--2-| |---| |---| |---| |------| |---| |---| |---| || |-4--4--4-
------------------| |---| |---| |---| |------| |---| |---| |---| || |---------
------------------| |---| |---| |---| |------| |---| |---| |---| || |---------


---| |---------| |------------| |---------| |------------------------| |------
---| |---------| |------------| |---------| |------------------------| |------
---| |---------| |------------| |---------| |------------------------| |------
-4-| |-4--4--4-| |-4--4--4--4-| |-4--4--4-| |-2--2--------2--2-------| |-2--2-
---| |---------| |------------| |---------| |-------4--4--------4--4-| |------
---| |---------| |------------| |---------| |------------------------| |------


------------------| |------------------------| |------------------------| |-5-
------------------| |------------------------| |------------------------| |---
------------------| |------------------------| |-------1--1-------------| |---
-------2--2-------| |-4--4--2--2--4--4--2--2-| |-4--4--------4--4--2--2-| |---
-4--4--------4--4-| |------------------------| |------------------------| |---
------------------| |------------------------| |------------------------| |---


Track 7:
Time Signature: 4/4.


|-----| |---------| |---------| |------| |---| |---| |---| |------| |---| |---
|G----| |---------| |---------| |------| |---| |---| |---| |------| |---| |---
|T----| |---------| |---------| |------| |---| |---| |---| |------| |---| |---
|A----| |---------| |---------| |------| |---| |---| |---| |------| |---| |---
|B----| |---------| |---------| |------| |---| |---| |---| |------| |---| |---
|---2-| |-0--0--2-| |-?--?--?-| |-?--0-| |-2-| |-0-| |-?-| |-?--0-| |-2-| |-0-


------| |------| |---| |---------| |---------| |---| |---| |------------------
------| |------| |---| |---------| |---------| |---| |---| |------------------
------| |------| |---| |---------| |---------| |---| |---| |------------------
------| |------| |---| |---------| |---------| |---| |---| |------------------
------| |------| |---| |---------| |---------| |---| |-4-| |------------------
-0--2-| |-?--?-| |-?-| |-2--2--1-| |-0--0--?-| |-?-| |---| |-?--?--?--?--?--?-


------------| |------------------------------| |------------| |------------|
------------| |------------------------------| |------------| |----------2-|
------------| |------------------------------| |------------| |-------1----|
------------| |------------------------------| |------------| |----3-------|

------------| |------------------------------| |-------0--2-| |-4----------|
-?--?--?--?-| |-0--0--0--0--0--0--0--0--0--0-| |-2--4-------| |------------|


|------------------------------------| |------------------------------------
|------------------------------------| |------------------------------------
|------------------------------------| |------------------------------------
|------------------------------------| |------------------------------------
|------------------------------------| |------------------------------------
|-2--2--2--2--2--2--2--2--2--2--2--2-| |-2--2--2--2--2--2--2--2--2--2--2--2-


| |------------------------------------| |------------------------------------
| |------------------------------------| |------------------------------------
| |------------------------------------| |------------------------------------
| |------------------------------------| |------------------------------------
| |------------------------------------| |------------------------------------
| |-2--2--2--2--2--2--2--2--2--2--2--2-| |-2--2--2--2--2--2--2--2--2--2--2--2-


| |------------------------------------| |------------------------------------
| |------------------------------------| |------------------------------------
| |------------------------------------| |------------------------------------
| |------------------------------------| |------------------------------------
| |-0--0--0--0--0--0--0--0--0--0--0--0-| |-2--2--2--2--2--2--2--2--2--2--2--2-
| |------------------------------------| |------------------------------------


If i remeber correctly, the first thing,is the main rift and the second is 
the backround, you'll figure it out, hope you enjoy.


VGJam Tabs Mega Man 3 - "Intro"
Tabs database last modified Tuesday, 01-Nov-2016 19:14:53 UTC.
Copyright © 1999 - 2016 VideoGameJam.com. All rights reserved.