VGJam Tabs Mega Man 3
Mega Man 3
"Proto Man's whistle" - Guitar tab
Platform(s):Nintendo Entertainment System
Tabbed by:Blackbird
Last modified:2000-01-23
Print it:Original file (.TXT)
Hear it:MIDI file
#-------------------------------PLEASE NOTE------------------------------------#
#This file is the author's own work and represents their interpretation of the #
#song. You may only use this file for private study, scholarship, or research. #
#------------------------------------------------------------------------------#

Title: ProtoMan's Whistle (from MegaMan 3)
Tablature by Blackbird (blk_bird@yahoo.com)

E |-3-6-8-----6-|-10----3-6-9--|-8--6--------|
B |-------------|--------------|------6-8----|
G |*------------|--------------|------------*|
D |*------------|--------------|------------*|
A |-------------|--------------|-------------|
E |-------------|--------------|-------------|

And here's a bass version in case you're bored.
|-0-3-5-----3-|-7----0-3-6--|-5--3---0----|
|*------------|-------------|------3-----*|
|*------------|-------------|------------*|
|-------------|-------------|-------------|

------------------------------------------------------------------
Ewen "Blackbird" Cluney                         blk_bird@yahoo.com
Blackbird's Domain            http://www.geocities.com/tokyo/6127/
Knight Kevlar of the Immortal Frog        Silver Knight of Mihoshi
              "Be nice to me; I might just develop 
             psychokinetic powers and destroy Tokyo!"
------------------------------------------------------------------

VGJam Tabs Mega Man 3 - "Proto Man's whistle"
Tabs database last modified Tuesday, 01-Nov-2016 19:14:53 UTC.
Copyright © 1999 - 2016 VideoGameJam.com. All rights reserved.