VGJam Tabs Mega Man 3
Mega Man 3
"Spark Man" - Guitar tab
Platform(s):Nintendo Entertainment System
Tabbed by:djnewspaper
Last modified:2001-09-11
Print it:Original file (.TXT)
#----------------------------------PLEASE NOTE--------------------------------#
#This file is the author's own work and represents their interpretation of the#
#song. You may only use this file for private study, scholarship, or research.#
#-----------------------------------------------------------------------------#


 sparkman's stage
 from mega man3 for NES
Transcribed by: djnewspaper
Email: djnewspaper@aol.com

Figure A1                                       Figure A2
-|----------6--5------------------------------|-------5-6---5--6--8---6-8-10--
-|--------6-------6--8-----6-5-6---5---5------|-8---8-------------------------
-|-7----7----------------------------7-----7-5|-------------------------------
-|--------------------------------------------|-------------------------------
-|--------------------------------------------|-------------------------------
-|--------------------------------------------|-------------------------------


Fig.A2 continued
                           -8-6-5|
                           ------|
                           ------|
                           ------|
                           ------|
                           ------|


   
FigureB
-|-3--3----3-6--------3--3----3-6--3p6--8--8--8-6-8------11-12-13--14-15-16-|-
-|-------6--------3p6-------6----------------------------11-12-13--14-15-16-|-
-|--------------------------------------------------------------------------|-
-|--------------------------------------------------------------------------|-
-|--------------------------------------------------------------------------|-
-|--------------------------------------------------------------------------|-



FigureC
-|15-13-11-----11----------13-11-10-----------10---------|
-|---------15----15-13--------------13--13-12------------|
-|-----------------------------------------------12------|
-|-------------------------------------------------------|
-|-------------------------------------------------------|
-|-------------------------------------------------------|


FigureC1
-|11---13---15---11---13---15---11---13---15--13--11--10----|
-|-------------------------------------------------------12-|
-|----------------------------------------------------------|
-|----------------------------------------------------------|
-|----------------------------------------------------------|
-|----------------------------------------------------------|


FigureC2
-|11---13---15---11---13---15-----6---6--66--66---7|
-|-------------------------------------------------|
-|-------------------------------------------------|
-|-------------------------------------------------|
-|-------------------------------------------------|
-|-------------------------------------------------|


songflow:Fig.A1/Fig.A2-repeat twice
         Fig.B twice
         Fig.C/Fig.C1
         Fig.C/Fig.C2
         Then repeat from figure B

VGJam Tabs Mega Man 3 - "Spark Man"
Tabs database last modified Tuesday, 01-Nov-2016 19:14:53 UTC.
Copyright © 1999 - 2016 VideoGameJam.com. All rights reserved.