VGJam Tabs Mega Man 3
Mega Man 3
"Top Man" - Guitar tab
Platform(s):Nintendo Entertainment System
Tabbed by:Bennett
Last modified:2001-07-03
Print it:Original file (.TXT)
Hear it:MIDI file
*----------------------This file from Bennett----------------------*
*-------------Have Fun Practising And Getting It Right-------------*
*--If i haven't got it right i'm sorry but it's the best i can do--*

Date: Sunday, 03 of June 2001.
From: Eric (Nick) - "Bennett".
Subject: Top Man, Mega Man 3(NES).


		Mega Man 3 - Top Man Stage

*Very Important*		
	1.Normal Tuning E,A,D,G,B,E. Starting with the Biggest String.
        2.Clean Sound.

Legend: 
* = Harmonic
/ = Slide
h = Hammer-on
p = Pull-off
" = Block strings
% = Let ring strings
| = Indicates there is a new bar
PM... = Palm Mute
R = Repeat Until you don't need to do it anymore.
WH = Whamy Bar (Vibrato w/ Bar)
~ = Vibrato

Starting Riff. (Riff 1).

	Top = Big String
	Bottom = Small String

|----------------------------------------------------------------------| E
|-------------------------------------------------5--------------------| A
|-3-2-0-5-3-2-0-5-----2-3-3-2-0-5-3-2-0-5-----3-5----------------------| D
|-----------------0-2---------------------0-2--------------------------| G
|----------------------------------------------------------------------| B
|----------------------------------------------------------------------| E

Second Riff (Riff 2).

|--------------------------------|--------------------------------------|
|--------------------------------|--------------------------------------|
|-00---0---0---0------0---0------|-00---0---0---0-----------------------|
|--------------------------------|--------------------------------------|
|----------------3h5----1---5-3--|----------------1h2h3--6-5-3----------|
|----5---3---1------1------------|----5---3---1-------------------------|

Third Riff (Riff 3)

|--------------------------------|--------------------------------------|
|--------------------------------|--------------------------------------|
|--------------------------------|--------------------------------------|
|-7-9-10-------12-12-------------|-7-9-10-------------12-14%-12-14------|
|--------13-12-------12-10%-8-10-|--------12-15-13-12-------------------|
|--------------------------------|--------------------------------------|

Fourth Riff (Riff 4)

|-------------------|---------------------------------------------------|
|-------------------|---------------------------------------------------|
|-------------------|---------------------------------------------------|
|-10-10-9--10--10-9-|-77-5-7---5-7---5-7---77-5-7---3-4-5-6/7-----------|
|-------------------|--------6-----6-----6--------6---------------------|
|-------------------|---------------------------------------------------|

*Return, pepeat (Riff 2).

VGJam Tabs Mega Man 3 - "Top Man"
Tabs database last modified Tuesday, 01-Nov-2016 19:14:53 UTC.
Copyright © 1999 - 2016 VideoGameJam.com. All rights reserved.