VGJam Tabs Mega Man 4
Mega Man 4
"Dr. Wily" - Guitar tab
Platform(s):Nintendo Entertainment System
Composed by:Hirokazu "Hip" Tanaka
Tabbed by:devoid
Last modified:2001-08-15
Print it:Original file (.TXT)
Megaman 4 - Dr. Wily fight

Pretty much your straightforward guitar solo. 
Play with a nice lead tone.

e:---------7--8-----7--8-----7--8-----7--8------
B:---6--6--------6--------6--------6------------
G:----------------------------------------------
D:----------------------------------------------
A:----------------------------------------------
E:----------------------------------------------

e:---8--6--4-6p4h6h7h8----6p4h6h7h8----11--11----11------12--15---
B:--------------------------------------------13-----13-----------
G:----------------------------------------------------------------
D:----------------------------------------------------------------
A:----------------------------------------------------------------
E:----------------------------------------------------------------

e:---16--15h16p15------------16-15h16h18--16--15------20-18p16h20-
B:---------------18--16--------------------------16---------------
G:-----------------------17---------------------------------------
D:----------------------------------------------------------------
A:----------------------------------------------------------------
E:----------------------------------------------------------------

e:---------------------------15--
B:---17--17------17------17------
G:-----------17------17----------
D:-------------------------------
A:-------------------------------
E:-------------------------------

VGJam Tabs Mega Man 4 - "Dr. Wily"
Tabs database last modified Tuesday, 01-Nov-2016 19:14:53 UTC.
Copyright © 1999 - 2016 VideoGameJam.com. All rights reserved.