VGJam Tabs Metroid
Metroid
"Level intro theme" - Guitar tab
Platform(s):Nintendo Entertainment System
Composed by:Hirokazu "Hip" Tanaka
Tabbed by:Michael Gum
Last modified:2005-10-23
Print it:Original file (.TXT)
Game:       Metroid
Developer:  Nintendo
Song:       Level Intro
Tabbed By:  Michael Gum (almightyjimbob@gmail.com)

Tuning:     Drop-D (DADGBE)

Here's the chords themselves.  It sounds best when fingerpicked, letting the
chords ring.  Also, don't forget to tune to Drop-D, or that last chord won't
sound right.

-3---5---1---0---------
-3---6---3---1---3-----
-5---5---3---0---2-----
-----0-----------2---4-
-6-------3---0---------
-----------------0-----

Here's the way it actually is in the game.  Personally, I can't play these
notes nearly fast enough.  Maybe you're some kinda superhuman and you can
pull it off, so I guess I'll throw it in anyway.  It's the same chords, but
the picking is more complicated.  Again, fingerpick and let the chords ring.

-3---3---3---3---5---5---5---5---|-1---1---1---1---0---0---0---0---
-3---------------6---------------|-3---------------1---------------
---5---5---5---5---5---5---5---5-|---3---3---3---3---0---0---0---0-
-----------------0---------------|---------------------------------
-6-------------------------------|-3---------------0---------------
---------------------------------|---------------------------------

---------------------------------|---------------------------------
-3---3---3---3---3---3---3---3---|-3---3---3---3---3---3---3---3---
-2-------------------------------|---------------------------------
---2---2---2---2---4---4---4---4-|---4---4---4---4---4---4---4---4-
---------------------------------|---------------------------------
-0-------------------------------|---------------------------------

VGJam Tabs Metroid - "Level intro theme"
Tabs database last modified Tuesday, 01-Nov-2016 19:14:53 UTC.
Copyright © 1999 - 2016 VideoGameJam.com. All rights reserved.