VGJam Tabs Metroid
Metroid
"Mini-boss hideout 1" - Guitar tab
Platform(s):Nintendo Entertainment System
Composed by:Hirokazu "Hip" Tanaka
Tabbed by:Deezer
Last modified:2006-10-26
Print it:Original file (.TXT)
Hear it:MIDI file
#----------------------------------PLEASE NOTE---------------------------------#
#This file is the author's own work and represents their interpretation of the #
#song. You may only use this file for private study, scholarship, or research. #
#------------------------------------------------------------------------------#

Metroid (NES)
"Mini-boss hideout 1"

Originally composed by: Hip Tanaka
------------------------------------------------------------------------------
Tabbed by: Deezer (deezer AT videogamejam DOT com)
For http://www.videogamejam.com
------------------------------------------------------------------------------

Standard Tuning - (low to high) EADGBe


|----------------------------------------------|
|------------10--------------------------------|
|-9----------------------11--------------------|
|--------9----------10-----------12---9------8-|
|----------------------------------------------|
|----------------------------------------------| x4

|--------------------------------------------|
|-8---------------------7----------10--------|
|--------7---9-----------------7-----------9-|
|-------------------9------------------------|
|--------------------------------------------|
|--------------------------------------------| x2

|-------------------------------------------------------------------------|
|-------------------------------------------------------------------------|
|-12----12----12----15----15----15----14----14----14----14----------16-11-|
|----14----14----14----16----16----16----15----15----15----13-16-13-------|
|-------------------------------------------------------------------------|
|-------------------------------------------------------------------------| x4

|-------------------14----------------17-14-------------------------12---|
|----------12-15-12----15----------12-------15-------------------15------|
|-11-12-14----------------14-12----------------14-12-------12-14---------|
|-------------------------------16-------------------16-14---------------|
|------------------------------------------------------------------------|
|------------------------------------------------------------------------| x2

|-17---15---14--------14---15-|
|----------------17-----------|
|-----------------------------|
|-----------------------------|
|-----------------------------|
|-----------------------------| x4

Repeat from beginning.


Revision history:
 08/17/1999 - First draft.
 10/26/2006 - Transposed up one octave. Fixed two misplaced notes.

VGJam Tabs Metroid - "Mini-boss hideout 1"
Tabs database last modified Tuesday, 01-Nov-2016 19:14:53 UTC.
Copyright © 1999 - 2016 VideoGameJam.com. All rights reserved.