VGJam Tabs Metroid
Metroid
"Mini-boss hideout 1" - Guitar tab
Platform(s):Nintendo Entertainment System
Composed by:Hirokazu "Hip" Tanaka
Tabbed by:Daniel Lee Hill
Last modified:2000-12-10
Print it:Original file (.TXT)
Hear it:MIDI file
Metroid

Daniel Lee Hill
ICQ: 7831222

Any comments/corrections
are very welcome!


E -0---5---2-------|
B ---0---1---3-0---|
G ---------------3-|
D -----------------|
A -----------------|
E -----------------|

E --3---0---2---5-0-|
B ----3---0---3-----|
G ------------------|
D ------------------|
A ------------------|
E ------------------|

E -3-0-3-0-3-0-6---6---6---5---5---5---5---2---7---|
B ---------------7---7---7---6---6---6---4---4---7-|
G -------------------------------------------------|
D -------------------------------------------------|
A -------------------------------------------------|
E -------------------------------------------------|

E ------------------14-10--------7-|
B ------------15-12-------10-8-7---|
G 11-12-14-16----------------------|
D ---------------------------------|
A ---------------------------------|
E ---------------------------------|

E -17-14-10---------------10-12-|
B ----------10-8-7-5-8-10-------|
G ------------------------------|
D ------------------------------|
A ------------------------------|
E ------------------------------|

E -17-15-14-12-14-15-|
B -------------------|
G -------------------|
D -------------------|
A -------------------|
E -------------------|

VGJam Tabs Metroid - "Mini-boss hideout 1"
Tabs database last modified Tuesday, 01-Nov-2016 19:14:53 UTC.
Copyright © 1999 - 2016 VideoGameJam.com. All rights reserved.