VGJam Tabs Metroid
Metroid
"Title screen" - Guitar tab
Platform(s):Nintendo Entertainment System
Composed by:Hirokazu "Hip" Tanaka
Tabbed by:Deezer
Last modified:2002-07-11
Print it:Original file (.TXT)
Hear it:MIDI file
#----------------------------------PLEASE NOTE---------------------------------#
#This file is the author's own work and represents their interpretation of the #
#song. You may only use this file for private study, scholarship, or research. #
#------------------------------------------------------------------------------#


Metroid (Nintendo Entertainment System)
"Title"

Originally composed by: Hirokazu "Hip" Tanaka
------------------------------------------------------------------------------
Tabbed by: Deezer (deezer@kontek.net)
For http://www.kontek.net/vgjam/
------------------------------------------------------------------------------

Standard tuning: (low to high) EADGBe


w/echo effect

|------------------18-----------------------------------------------
|-----------------------------------18------------------------------
|-19----------------------------------------------------------------
|-------------------------------------------------------------------
|-------------------------------------------------------------------
|-------------------------------------------------------------------

 ------------------20---------------18------------------------------|
 -------------------------------------------------------------------|
 -19----------------------------------------------------------------|
 -------------------------------------------------------------------|
 -------------------------------------------------------------------|
 -------------------------------------------------------------------| x2

|-17--------15--------14--------12-------
|----------------------------------------
|------14--------12--------11--------9---
|----------------------------------------
|----------------------------------------
|----------------------------------------

 -15--------14--------12-------10-------|
 ---------------------------------------|
 ------12--------11--------9--------7---|
 ---------------------------------------|
 ---------------------------------------|
 ---------------------------------------| x6

echo effect off

--------------------------------------------------------------------
-10-----8-----7-----------10-----8------------------10-----8--------
--------------------9------------------10-----9------------------10-
------7-----7-----7-----7------7-----7------7-----7------8-----8----
--------------------------------------------------------------------
--------------------------------------------------------------------

--------------------------------------------------------------
----8-----10-----10-----10-----10-----9-----9-----9-----9-----
-------------9------9------9------9-----9-----9-----9-----9---
--8-----8------9------9------9------9-----9-----9-----9-----9-
--------------------------------------------------------------
--------------------------------------------------------------


Last modified: 07/11/2002

VGJam Tabs Metroid - "Title screen"
Tabs database last modified Tuesday, 01-Nov-2016 19:14:53 UTC.
Copyright © 1999 - 2016 VideoGameJam.com. All rights reserved.