VGJam Tabs Metroid
Metroid
"Title screen" - Bass tab
Platform(s):Nintendo Entertainment System
Composed by:Hirokazu "Hip" Tanaka
Tabbed by:ddevil
Last modified:2001-08-24
Print it:Original file (.TXT)
Hear it:MIDI file
Metroid / NES / Title Screen(Bass)

Tabbed by: ddevil@evilgaming.net


Dropped-D tuning. It almost plays itself.

G-------------------|-------------------|-------------------|
D--0----------------|--0----------------|--0----------------|
A-------------------|-------------------|-------------------|
D-------------------|-------------------|-------------------|

G-------------------|-------------------|-------------------|-------------------|
D--0----------------|--0----------------|--0----------------|--0----------------|
A-------------------|-------------------|-------------------|-------------------|
D-------------------|-------------------|-------------------|-------------------|

G-------------------|-------------------|-------------------|-------------------|
D--0----------------|--0----------------|--0----------------|--0----------------|
A-------------------|-------------------|-------------------|-------------------|
D-------------------|-------------------|-------------------|-------------------|

G-------------------|-------------------|-------------------|-------------------|
D--0----------------|--0----------------|--0----------------|--0----------------|
A-------------------|-------------------|-------------------|-------------------|
D-------------------|-------------------|-------------------|-------------------|

G-------------------|--7----------------|--17----------------|
D--0----------------|-------------------|--------------------|
A-------------------|-------------------|--------------------|
D-------------------|-------------------|--------------------|

G--16----------------|--15----------------|--11----------------|
D--------------------|--------------------|--------------------|
A--------------------|--------------------|--------------------|
D--------------------|--------------------|--------------------|

G--17----------------|--15----------------|--12----------------|
D--------------------|--------------------|--------------------|
A--------------------|--------------------|--------------------|
D--------------------|--------------------|--------------------|

G-------------------|--------------------|--------------------|
D-------------------|--------------------|--------------------|
A--5----------------|--15----------------|--14----------------|
D-------------------|--------------------|--------------------|

G--------------------|-------------------|--------------------|
D--------------------|-------------------|--------------------|
A--13----------------|--9----------------|--15----------------|
D--------------------|-------------------|--------------------|

G--------------------|--------------------|-------------------|
D--------------------|--------------------|-------------------|
A--13----------------|--10----------------|--5----------------|
D--------------------|--------------------|-------------------|

G--------------------|--------------------|--------------------|
D--------------------|--------------------|--------------------|
A--15----------------|--14----------------|--13----------------|
D--------------------|--------------------|--------------------|

G-------------------|--------------------|--------------------|
D-------------------|--------------------|--------------------|
A--9----------------|--15----------------|--13----------------|
D-------------------|--------------------|--------------------|

G--------------------|----------7-----------|-----7--------------5--|
D--------------------|-------4--------------|--4--------------3-----|
A--10----------------|--5--------------5----|------------1----------|
D--------------------|----------------------|-----------------------|

G--------------5------|----------------------|-----------------------|
D-----------3---------|----------1-----------|-----1--------------2--|
A------1--------------|-------1--------------|--1--------------2-----|
D---------------------|--1--------------1----|------------2----------|

G---------------------|----------------------|---------------------|
D--------------2------|----------2-----------|-----2------0--------|
A-----------2---------|-------2--------------|--2------------------|
D------2--------------|--2--------------2----|---------------------|

G-------------------|-------------------|-------------------|-------------------|
D----------0--------|----------0--------|----------0--------|----------0--------|
A-------------------|-------------------|-------------------|-------------------|
D-------------------|-------------------|-------------------|-------------------|

G-------------------|-------------------|-------------------|
D----------0--------|----------0--------|----------0--------|
A-------------------|-------------------|-------------------|
D-------------------|-------------------|-------------------|
VGJam Tabs Metroid - "Title screen"
Tabs database last modified Tuesday, 01-Nov-2016 19:14:53 UTC.
Copyright © 1999 - 2016 VideoGameJam.com. All rights reserved.