VGJam Tabs Mike Tyson's Punch-Out!!
Mike Tyson's Punch-Out!!
"Glass Joe" - Guitar tab
Platform(s):Nintendo Entertainment System
Tabbed by:David Garcia
Last modified:2006-06-05
Print it:Original file (.TXT)
Hear it:MIDI file
#--------------------------------PLEASE NOTE--------------------------------#
#This file is the tabber's own work and represents his interpretation of the#
#song. Use this file for anything. Music was meant to be played, so rock on!#
#---------------------------------------------------------------------------#


THE ARTIST: Nintendo
THE SONG: Glass Joe's entrance song
THE RECORD: Mike Tyson's Punch-out!!
SYSTEM: Nintendo
TUNING: Standard (eBGDAE)
TRANSCRIBED BY: David Garcia
E-MAIL ADDRESS: locklobster@earthlink.net

Personally, I think Glass Joe has the best entrance song. It sounds powerful,
despite the weakness of the character whom it represents.

e-|-----3-3---3---3-5-5---5---5---10-----------------------------------------
B-|-3-3--------------------------------12-------12--------13-----12-13-------
G-|---------------------------------------12-12----12-9------------------14--
D-|--------------------------------------------------------------------------
A-|--------------------------------------------------------------------------
E-|--------------------------------------------------------------------------

-----------------------|
-----------------------|
12----12-12--12-12-----|
-----------------------|
-----------------------|
-----------------------|

I would also like to mention something I noticed about Joe's entrance, and I
do not believe I am the only one to do this. When the music starts, Glass Joe
raises up his arm and cocks his eye to the side. Somehow, I always catch
myself staring at his poorly placed armpit and godawful lazy eye. I know, but
I can't resist. Its just too damn sick.

(Go ahead, print this out. This file is printer friendly, no need to format!)

VGJam Tabs Mike Tyson's Punch-Out!! - "Glass Joe"
Tabs database last modified Tuesday, 01-Nov-2016 19:14:53 UTC.
Copyright © 1999 - 2016 VideoGameJam.com. All rights reserved.