VGJam Tabs Mike Tyson's Punch-Out!!
Mike Tyson's Punch-Out!!
"Password screen" - Guitar tab
Platform(s):Nintendo Entertainment System
Tabbed by:wah_waaah
Last modified:2001-11-29
Print it:Original file (.TXT)
THE ARTIST: Nintendo?
THE SONG: Password screen
THE RECORD: Mike Tyson PunchOut
TUNING: Standard
THE TABBER: Warlock  (MINDLESS SLAVE 2019, Paul K.)
E-MAIL ADDRESS: WAH_WAAAH@hotmail.com

the password screen (this took a little longer like a half hour)
G----21-19-17-16---------19-17-16-14------17-16-14-12--------
D-19------------17------------------15---------------14------
A------------------------------------------------------------
E------------------------------------------------------------

E------------------------------------------------------------
B------------------------------------------------------------
G---------------------(14-14-13)-----------------------------
D-12h14h15-14p13-14---(19-19-18)-----------------------------
A------------------------------------------------------------
E------------------------------------------------------------

The ()= pick one or the other

perfect the timing move back 2 for second, 3 for third/ Thats the best i 
could do
E------------------------------------------------------------
B------20----20----20----------------------------------------
G----19----19----19------------------------------------------
D--17----17----17-----17-19-21-23-21-19----------------------
A------------------------------------------------------------
D------------------------------------------------------------

correct me!!
MAKE THE LAST PART EASIER!!!!

VGJam Tabs Mike Tyson's Punch-Out!! - "Password screen"
Tabs database last modified Tuesday, 01-Nov-2016 19:14:53 UTC.
Copyright © 1999 - 2016 VideoGameJam.com. All rights reserved.