VGJam Tabs Mike Tyson's Punch-Out!!
Mike Tyson's Punch-Out!!
"Theme" - Guitar tab
Platform(s):Nintendo Entertainment System
Tabbed by:Mike Nason
Last modified:2001-05-10
Print it:Original file (.TXT)
Hear it:MIDI file
Punch out - Nintendo


Everyone loves the punchout music... and I got bored and decided to tab it.


(Short Opening)
[--------------------------------------------------]
[---7---7-7-5----3---3-3-5--5-5-7-7----------------]
[--------------------------------------------------]
(Tons more fun in power chords)

(Listen to the game to get the rhythm down)


[------------------------------------------------------------]
[--7----9-10-10-9-7----5/7--5---5/7--5---10-9-7---9-10-10-9-7]
[------------------------------------------------------------]



[----------------------------------------------9-12-11-7-----]
[--12/14--12---12/14--12---10-9-10-9-7----9-10---------------]
[------------------------------------------------------------]


[--7-11-12-11-12-11-7--7-11-11-12-11---14/16--14/16--14/16---]
[------------------------------------------------------------]
[------------------------------------------------------------]

(Repeat from the beginning)

It's a lot easier than it looks, just get the timing down and if you don't
agree with me about ending I wouldn't be surprised but it still sounds good.
Enjoy!!

Mike Nason

VGJam Tabs Mike Tyson's Punch-Out!! - "Theme"
Tabs database last modified Tuesday, 01-Nov-2016 19:14:53 UTC.
Copyright © 1999 - 2016 VideoGameJam.com. All rights reserved.