VGJam Tabs Mike Tyson's Punch-Out!!
Mike Tyson's Punch-Out!!
"Theme" - Guitar tab
Platform(s):Nintendo Entertainment System
Tabbed by:derekhasan
Last modified:2002-08-06
Print it:Original file (.TXT)
Hear it:MIDI file
Mike Tyson's Punch OUT! (Fighting Theme)
from Nintendo

Intro
e---------------------------------
B---------------------------------
G---------------------------------
D--2---2-2-2-0-----------------0-2
A----------------3---3-3-3-5------
E---------------------------------

e------------------------------------------------------
B-----------------------------------------------5-3-5--
G--2--4-5-5-4-2--0-2-0--0-2-0--5-4-2--4-5-5-25---------
D------------------------------------------------------
A------------------------------------------------------
E------------------------------------------------------

e----------------5-7-8-3---5-7-87-8-----5-5-7-87--12---
B--3-5353------5---------------------6-----------------
G---------2--2-----------------------------------------
D------------------------------------------------------
A------------------------------------------------------
E------------------------------------------------------

Have any questions email me also if anybody has bass
tab for this song just email me
derekhasan@yahoo.com
VGJam Tabs Mike Tyson's Punch-Out!! - "Theme"
Tabs database last modified Tuesday, 01-Nov-2016 19:14:53 UTC.
Copyright © 1999 - 2016 VideoGameJam.com. All rights reserved.