VGJam Tabs King of Fighters '96
King of Fighters '96
"Intro" - Bass tab
Platform(s):Neo·Geo
Tabbed by:Blackbird
Last modified:2000-01-23
Print it:Original file (.TXT)
Hear it:MIDI file
#-------------------------------PLEASE NOTE------------------------------------#
#This file is the author's own work and represents their interpretation of the #
#song. You may only use this file for private study, scholarship, or research. #
#------------------------------------------------------------------------------#

Title: King of Fighters '96 Intro
From a MIDI sequence by Erik Menjivar
Bass tablature by Blackbird (blk_bird@yahoo.com)

|--------------------|-------------------------|-------------------------|
|--------------------|-------------------------|-------------------------|
|----------------0---|-------------------------|---------------------0---|
|-----------3--3-----|-0--0--0--0--0--0--0-3---|-3--3--3--3--3--3--3-----|

|-------------------------|------------------------|-------------------------|
|-------------------------|------------------------|-------------------------|
|-0--0--0--0--0--0--0---2-|---0--2-0------0-2------|-------------------------|
|-------------------------|-----------3---------0--|-0--0--0--0--0--0--0-3---|

|-------------------------|----------------------------|--------------------|
|-------------------------|----------------------------|--------0-----------|
|---------------------0---|-0--0--0--------0------0--2-|---0--2-------------|
|-3--3--3--3--3--3--3-----|----------0-0-0----0-3------|--------------------|

|--------------|
|--------------|
|--------------|
|--0-0-0-0-0---|

------------------------------------------------------------------
Ewen "Blackbird" Cluney                         blk_bird@yahoo.com
Blackbird's Domain            http://www.geocities.com/tokyo/6127/
Knight Kevlar of the Immortal Frog        Silver Knight of Mihoshi
              "Be nice to me; I might just develop 
             psychokinetic powers and destroy Tokyo!"
------------------------------------------------------------------

VGJam Tabs King of Fighters '96 - "Intro"
Tabs database last modified Tuesday, 01-Nov-2016 19:14:53 UTC.
Copyright © 1999 - 2016 VideoGameJam.com. All rights reserved.