VGJam Tabs Mother
Mother
""Pollyanna: I believe in you" (main theme)" - Guitar tab
Platform(s):Nintendo Entertainment System
Composed by:Keiichi Suzuki
Tabbed by:Deezer
Last modified:1999-07-05
Print it:Original file (.TXT)
Hear it:MIDI file
#----------------------------------PLEASE NOTE---------------------------------#
#This file is the author's own work and represents their interpretation of the #
#song. You may only use this file for private study, scholarship, or research. #
#------------------------------------------------------------------------------#

Mother (Famicom)
"Pollyanna: I believe in you"

Originally composed by: Keiichi Suzuki
------------------------------------------------------------------------------
Tabbed by: Deezer (deezer@usa.net)
For http://www.kontek.net/vgjam/
------------------------------------------------------------------------------

Symbols used:
 x2 = Play this section twice

Standard Tuning: (low to high) EADGBe


--3--7--10--9----10----10--10--5----7----------3--7--10--9----10----10--
------------------------------------------------------------------------
------------------------------------------------------------------------
------------------------------------------------------------------------
------------------------------------------------------------------------
------------------------------------------------------------------------

|--------------0---------------------------------2----------------------|
|-------------------2--3-------------------3--3-------3-----------------|
|--------2--2------------------------4--4----------------2--------------|
|--4--4-----------------------------------------------------------5--5--|
|-----------------------------------------------------------------------|
|-----------------------------------------------------------------------| x2

-----------------------------2----7------------------------------------
------------------------3-------------------3--2--0--2--3--2--0--2--3--
-------------------4---------------------------------------------------
--4--2--0--2--4--------------------------------------------------------
-----------------------------------------------------------------------
-----------------------------------------------------------------------

-----------------------------------------------0-----------
--------------------------------------------------3--2--3--
--2--2--2----2----------------------2--2--2----------------
----------------4--2--0------------------------------------
-----------------------------------------------------------
-----------------------------------------------------------

------------------------------------------------------
--0--2--3--2--0--2--3--2--0--2--3--2--0--2--3---------
-------------------------------------------------2--2-
------------------------------------------------------
------------------------------------------------------
------------------------------------------------------

-------------------------------------2----------
-3--2--0--2--3--2--0--2--3--3--3--3-----3----3--
------------------------------------------------
------------------------------------------------
------------------------------------------------
------------------------------------------------


Last revised: 7/5/99

VGJam Tabs Mother - ""Pollyanna: I believe in you" (main theme)"
Tabs database last modified Tuesday, 01-Nov-2016 19:14:53 UTC.
Copyright © 1999 - 2016 VideoGameJam.com. All rights reserved.