VGJam Tabs Paperboy
Paperboy
"Theme" - Guitar, Bass tab
Platform(s):Nintendo Entertainment System
Tabbed by:rwin85
Last modified:2002-04-21
Print it:Original file (.TXT)
Hear it:MIDI file
                             Paperboy (NES)
                               Guitar Tab

Repeat as necessary with bass tab.


    q  e  e  E  s  h  e  e  e  s  s  q  q  e  e  E  s  h  e  e  e  s
E---r--1--3--5--3--r-----------------r--r--1--3--5--3--r----------------
B---e--------------e-----1--3--2--1--e--e--------------e-----1--3--2----
G---s--2--4--5--4--s--3--------------s--s--2--4--5--4--s--3-------------
D---t--------------t--0--2--3--3--2--t--t--------------t--0--2--3--3----
A-----------------------------------------------------------------------
E-----------------------------------------------------------------------



    s  t  e  e  E  S  e  H  x  E  S  e  H  x  E  S  e  H  x  q  q  q
E------r--r-----------r-----r--------r-----r--------r-----r-----0--1----
B---1--e--e--3--1--3--e-----e--3--5--e--1--e--1--3--e-----e--3----------
G------s--s-----------s--3--s--------s-----s--------s--3--s-----0--1----
D---2--t--t-----1--1--t--0--t--3--3--t--2--t--1--1--t--0--t--3----------
A-----------------------------------------------------------------------
E-----------------------------------------------------------------------



    q  q  e  e  s  E  s  h  e  e  e  s  s  h  e  e  s  E  s  E  q  q
E---2--r--0--2-----3--2--r-----------------r--0--2-----3--2--r--3--2----
B------e-----------------e--------1--------e-----------------e--1--1----
G---2--s--0--2--4--4--2--s--2--4-----4--2--s--0--2--4--4--2--s----------
D------t--------0--------t-----0--2--0-----t--------0--------t----------
A---------------------------3-----------3-------------------------------
E-----------------------------------------------------------------------



    q  q
E---2--1----------------------------------------------------------------
B---0--0----------------------------------------------------------------
G-----------------------------------------------------------------------
D-----------------------------------------------------------------------
A-----------------------------------------------------------------------
E-----------------------------------------------------------------------


                             Paperboy (NES)
                                Bass Tab
                                       
Play the whole thing and repeat.  
Rests are indicated as barlines.


    s  E  e  e  E  s  s  s  e  s  E  e  e  s  e  s  s  s  e  s  E  e
G---------r-----------r--------------r--------------r--------------r----
D---------e--0--3--3--e--3--0--------e--------------e--0-----------e----
A---------s-----------s--------3--3--s--1--3--3--3--s-----1--------s----
E---3--3--t-----------t--------------t--------------t--------3--3--t----


    e  E  s  s  s  e  s  e  e  e  s  e  s  s  s  e  E  e  e  E  s  s
G------------r--------------r--------------r-----------r-----------r----
D---0--3--3--e--3--0--------e--------------e--0--------e--0--3--3--e----
A------------s--------3--3--s--1--3--3--3--s-----1--1--s-----------s----
E------------t--------------t--------------t-----------t-----------t----


    
    s  e  s  e  e  e  s  e  s  s  s  e  q  e  e  E  s  s  s  e  q  q
G---------------r--0--3--3--3--r--3--0-----r-----------r----------------
D---3--0--------e--------------e-----------e--0--3--3--e--3--0-----0----
A---------3--3--s--------------s--------1--s-----------s--------3-------
E---------------t--------------t-----------t-----------t----------------


    
    q  q  s  E  e  e  E  s  s     e  s  E  e  e  s  e  s  s  s  e  s
G---------------r-----0--0--r--0-----------r--------------r-------------
D---1--2--------e--2--------e-----2--0--0--e-----0--0--0--e--2----------
A---------0--0--s-----------s--------------s--3-----------s-----3--0----
E---------------t-----------t--------------t--------------t-------------



    E  e  e  E  s  s  s  e  q  q  q  q
G------r-----0--0--r--0-------------------------------------------------
D------e--2--------e-----2--0--0----------------------------------------
A---0--s-----------s-----------------4----------------------------------
E------t-----------t--------------4-------------------------------------


Submitted by: rwin85

=========================================================
==                       TABLATURE EXPLANATION                       
=========================================================

Rhythm:
  w = whole note            W = dotted whole
  h = half note             H = dotted half
  q = quarter note          Q = dotted quarter
  e = eighth note           E = dotted eighth
  s = sixteenth note        S = dotted sixteenth
  t = 32nd note             T = dotted 32nd
  x = 64th note             X = dotted 64th
  ^ = triplet

VGJam Tabs Paperboy - "Theme"
Tabs database last modified Tuesday, 01-Nov-2016 19:14:53 UTC.
Copyright © 1999 - 2016 VideoGameJam.com. All rights reserved.