VGJam Tabs Shatterhand
Shatterhand
"Area G" - Guitar tab
Platform(s):Nintendo Entertainment System
Tabbed by:Vincent Bouchard
Last modified:2007-04-16
Print it:Original file (.TXT)
Hear it:MIDI file
                                     AREA G
                                  Shatterhand

Transcribed by Vincent Bouchard

Gtr I (E A D G B E) - 'Lead'

    Q=200
   4/4
    Gtr I
    E E  E E E E E E    E E E E +E   E E  E
||-------------------|-----------------------||
||o------------8-----|-10-----8-(8)---------o||
||--7-7-10-7-7---7-7-|----7-7-------10-9-----||
||-------------------|-------------------10--||
||o------------------|----------------------o||
||-------------------|-----------------------||


   +E   E E  E  E E  E  E   E  E E  E E E  E E
|-------------------------|--------------------|
|-------------------------|------8-------------|
|------10-9----10-9----10-|-9------10-9------7-|
|-(10)------10------10----|---10--------7-10---|
|-------------------------|--------------------|
|-------------------------|--------------------|


   q   Q.    Q.     Q.    Q   Q.     Q  E  E  +H        +E  E  E E  E E  E E
|-10--------------|----------------|-----------------|-----------------------|
|-----10----11----|-8----10--------|-8---------------|-----------------------|
|-----------------|----------10----|----9-10-(10)----|-(10)------7-10-9----7-|
|-----------------|----------------|-----------------|------7-10--------10---|
|-----------------|----------------|-----------------|-----------------------|
|-----------------|----------------|-----------------|-----------------------|


  Q   Q.    Q.     Q.    Q   Q.     Q  E  E  +H        +E  E  E E  E E  E E
|----------------|----------------|-----------------|-----------------------|
|----10----11----|-8----10--------|-8---------------|-----------------------|
|----------------|----------10----|----9-10-(10)----|-(10)------7-10-9----7-|
|----------------|----------------|-----------------|------7-10--------10---|
|----------------|----------------|-----------------|-----------------------|
|----------------|----------------|-----------------|-----------------------|


                                          |-3--|
  Q  Q.   E  E E    Q   E  q  Q.     H    Q  Q Q    Q  E  Q.    +Q
|----------------|-----------------|-------------|--------------------|
|--------------8-|-10--11-10-------|-8----8------|-------10----(10)---|
|----7----9-10---|------------9----|--------10-9-|-10--7--------------|
|----------------|-----------------|-------------|--------------------|
|----------------|-----------------|-------------|--------------------|
|----------------|-----------------|-------------|--------------------|


  Q  Q.   E  E E    Q   E q   Q.
|----------------|--------8--10----|
|--------------8-|-10--11----------|
|----7----9-10---|-----------------|
|----------------|-----------------|
|----------------|-----------------|
|----------------|-----------------|


   H     E  E  E  E   E  E  E  E  E  E  E  E
|-12----12-13-15-12-|---13-12----------------|
|-------------------|---------13-------------|
|-------------------|------------------------|
|-------------------|------------15-14----12-|
|-------------------|------------------15----|
|-------------------|------------------------|


   q   Q.    Q.     Q.    Q   Q.     Q  E  E  +H        +E  E  E E  E E  E E
|-----------------|----------------|-----------------|-----------------------|
|-15--10----11----|-8----10--------|-8---------------|-----------------------|
|-----------------|----------10----|----9-10-(10)----|-(10)------7-10-9----7-|
|-----------------|----------------|-----------------|------7-10--------10---|
|-----------------|----------------|-----------------|-----------------------|
|-----------------|----------------|-----------------|-----------------------|


  Q   Q.    Q.     Q.    Q   Q.     Q  E  E  +H        +E  E  E E  E E  E E
|----------------|----------------|-----------------|-----------------------|
|----10----11----|-8----10--------|-8---------------|-----------------------|
|----------------|----------10----|----9-10-(10)----|-(10)------7-10-9----7-|
|----------------|----------------|-----------------|------7-10--------10---|
|----------------|----------------|-----------------|-----------------------|
|----------------|----------------|-----------------|-----------------------|


  Q  Q  E  E E  E    +Q   E  q  Q.      H     E E  E  E    +Q    E q   Q.
|-----------------|------------------|------------------|-------------------|
|------------8-10-|-(10)--8----------|----------8-10-11-|-(11)--10-8--------|
|----9--9-10------|---------10--9----|-10----10---------|-------------10----|
|-----------------|------------------|------------------|-------------------|
|-----------------|------------------|------------------|-------------------|
|-----------------|------------------|------------------|-------------------|


  Q  Q  E  E  E E   +Q    E  q   E  E E
|---------------8-|-(8)-----------------|
|----8--8-10-11---|------11-10--11-10-8-|
|-----------------|---------------------|
|-----------------|---------------------|
|-----------------|---------------------|
|-----------------|---------------------|


   E  E  E  E  E  E  E  E   E q  E +H
|-------------------------|-8-8--9-(9)----|
|-10-10-10-10-12-12-12-12-|---------------|
|-------------------------|---------------|
|-------------------------|---------------|
|-------------------------|---------------|
|-------------------------|---------------|


     E  E E E E  E Q    +E   E E  E  E E  E E
||--10------8---------|-----------------------|
||o----10-----8-------|-----------------------|
||--------7-----------|-----10-9----10-9----7-|
||--------------10-8--|-(8)------10------10---|
||o-------------------|-----------------------|
||--------------------|-----------------------|


  E q   E  q  E E   E E q   E E E  E
|-----------------|--------------------||
|-----------------|-------------------o||
|-------------7-7-|---9-9--10-9-7------||
|-8-8--10-10------|---------------10---||
|-----------------|-------------------o||
|-----------------|--------------------||


  Q   E  Q  Q  E   +E   Q   E  E  E  E  E    E  q   E  q   E  E   W
|----------------|---------12-13-12-10----|-10-10---------10-10-|------*|
|-----------8----|-----10--------------13-|--------13-13--------|------*|
|----10--------7-|-(7)--------------------|---------------------|------*|
|-8-----10-------|------------------------|---------------------|------*|
|----------------|------------------------|---------------------|------*|
|----------------|------------------------|---------------------|------*|


Duration Legend
---------------
W - whole; H - half; Q - quarter; E - 8th; S - 16th; T - 32nd; X - 64th; a - acciaccatura
+ - note tied to previous; . - note dotted; .. - note double dotted
Uncapitalized letters represent notes that are staccato (1/2 duration)
Irregular groupings are notated above the duration line
Duration letters will always appear directly above the note/fret number it represents the
duration for.  Duration letters with no fret number below them represent rests.  Multi-
bar rests are notated in the form Wxn, where n is the number of bars to rest for.  Low
melody durations appear below the staff

Tablature Legend
----------------
 h   - hammer-on
 p   - pull-off
 b   - bend
 pb  - pre-bend
 r   - bend release (if no number after the r, then release immediately)
 /\  - slide into or out of (from/to "nowhere")
 s   - legato slide
 S   - shift slide
  - natural harmonic
[n]  - artificial harmonic
n(n) - tapped harmonic
 ~   - vibrato
 tr  - trill
 T   - tap
 TP  - trem. picking
 PM  - palm muting
\n/  - tremolo bar dip; n = amount to dip
 \n  - tremolo bar down
 n/  - tremolo bar up
/n\  - tremolo bar inverted dip
 =   - hold bend; also acts as connecting device for hammers/pulls
 <>  - volume swell (louder/softer)
 x   - on rhythm slash represents muted slash
 o   - on rhythm slash represents single note slash

Misc Legend
-----------
 |  - bar
||  - double bar
||o - repeat start
o|| - repeat end
*|  - double bar (ending)
 :  - bar (freetime)
 $  - Segno
 &  - Coda
Tempo markers -  = BPM(8/16=s8/s16), where s8 = swing 8ths, s16 = swing 16ths


***************************************************************************************
* Generated using Power Tab Editor by Brad Larsen - http://powertab.guitarnetwork.org *
***************************************************************************************

VGJam Tabs Shatterhand - "Area G"
Tabs database last modified Tuesday, 01-Nov-2016 19:14:53 UTC.
Copyright © 1999 - 2016 VideoGameJam.com. All rights reserved.