VGJam Tabs Super Mario Bros.
Super Mario Bros.
"Course clear" - Guitar tab
Platform(s):Nintendo Entertainment System
Composed by:Koji Kondo
Tabbed by:Deezer
Last modified:2004-06-28
Print it:Original file (.TXT)
Hear it:MIDI file
#----------------------------------PLEASE NOTE---------------------------------#
#This file is the author's own work and represents their interpretation of the #
#song. You may only use this file for private study, scholarship, or research. #
#------------------------------------------------------------------------------#

Super Mario Bros. (Nintendo Entertainment System)
"Course clear"

Originally composed by: Koji Kondo
------------------------------------------------------------------------------
Tabbed by: Deezer (deezer AT videogamejam DOT com)
For http://www.videogamejam.com
------------------------------------------------------------------------------

This is the fanfare that plays when Mario (or Luigi) grabs a flagpole.

Standard tuning (low to high: EADGBe)


 (C/G)
----------------12-15-------12-------
-------------13----------------------
----------12-------------------------
-------14----------------------------
----15-------------------------------
-15----------------------------------

 (G#)
-------------------16----------------
-------------13-16----------16-------
----------13-------------------------
-------13----------------------------
----15-------------------------------
-16----------------------------------

 (A#)
-------------------18-------18-18-18-20---------
-------------15-18------------------------------
----------15------------------------------------
-------15---------------------------------------
----17------------------------------------------
-18---------------------------------------------


Last modified: 06/28/2004

VGJam Tabs Super Mario Bros. - "Course clear"
Tabs database last modified Tuesday, 01-Nov-2016 19:14:53 UTC.
Copyright © 1999 - 2016 VideoGameJam.com. All rights reserved.