VGJam Tabs Animal Crossing: Wild World
Animal Crossing: Wild World
"Town Tune" - Guitar tab
Platform(s):Nintendo DS
Tabbed by:Deezer
Last modified:2008-10-21
Date added:2008-10-21
Print it:Original file (.TXT)
#----------------------------------PLEASE NOTE---------------------------------#
#This file is the author's own work and represents their interpretation of the #
#song. You may only use this file for private study, scholarship, or research. #
#------------------------------------------------------------------------------#

Animal Crossing: Wild World (Nintendo DS)
"Town Tune"

Originally composed by: ?
------------------------------------------------------------------------------
Tabbed by: Deezer (deezer AT videogamejam DOT com)
For http://www.videogamejam.com
------------------------------------------------------------------------------


Standard tuning: (low to high) EADGBe


------12--------------------------------------------------
--13------13--------------12--15--13----------------------
--------------12------12----------------------------------
------------------15---------------------?----------------
-----------------------------------------------15---------
----------------------------------------------------------

The "?" means a random note is played from the scale below:

 --------------------------------------------------12--
 --------------------------------------12--13--15------
 ------------------------------12--14------------------
 ------------------12--14--15--------------------------
 ------12--14--15--------------------------------------
 --15--------------------------------------------------

(Basically a C major scale [no sharps/flats] starting on G.)


Last modified: 10/21/2008

VGJam Tabs Animal Crossing: Wild World - "Town Tune"
Tabs database last modified Tuesday, 01-Nov-2016 19:14:53 UTC.
Copyright © 1999 - 2016 VideoGameJam.com. All rights reserved.