VGJam Tabs Super Mario Bros.
Super Mario Bros.
"Aboveground BGM" - Guitar tab
Platform(s):Nintendo Entertainment System
Composed by:Koji Kondo
Tabbed by:Cole Mitchell
Last modified:2000-01-09
Print it:Original file (.TXT)
Hear it:MIDI file
SUPER MARIO BROS.: MAIN THEME
Composed by Koji Kondo
Transcribed by Cole Mitchell (cole_mitchell@hotmail.com)


NOTE: Each space of two characters represents a 16th note. If the
numbers representing frets run into one another, assume
that the fret numbers are double digit, rather than single
digit 32nd notes, unless otherwise stated. For example,
-1212- is more likely to be two 16th notes on the twelfth
fret than four 32nd notes on the first and second fret.


Progression of song:
Theme 1
Theme 2 (x2)
Theme 3 (x2)
Theme 4a
Theme 4b
Theme 4a
Theme 1
Theme 2 (x2)
Theme 5 (x2)
Theme 4a
Theme 4b
Theme 4a
Theme 1
Theme 5




Theme 1 Theme 2
e--------------------------------|--------------------------------|
B-5-5---5-----5---8--------------|--------------------------------|
G-----------5--------------------|-5------------------------------|
D--------------------------------|-------5-----------7---9---8-7--|
A--------------------------------|------------7-------------------|
E--------------------------------|--------------------------------|
                                 |                                |
e--------------------------------|--------------------------------|
B--------------------------------|--------------------------------|
G-----------------4--------------|--------------------------------|
D-4-4---4---4-4-----------5------|-2------------------------------|
A--------------------------------|-------3-----------3---5---4-3--|
E--------------------------------|-------------3------------------|
                                 |                                |
G-----------------12-------------|--------------------------------|
D-0-0---0---0-0------------------|-5-----2-----------3---5----4-3-|
A-------------------------10-----|-------------3------------------|
E--------------------------------|--------------------------------|


Theme 2 cont'd Theme 3
e---------5----------------------|-----3-2-1----------------------|
B-------5-----6-8---5------------|-----------3---5-------1-----1-3|
G---5-------------------5-7-4----|-------------------1-2-----2----|
D-5------------------------------|--------------------------------|
A--------------------------------|--------------------------------|
E--------------------------------|--------------------------------|
                                 |                                |
e--------------------------------|--------------------------------|
B--------------------------------|-----5-4-3-0---1----------------|
G-------4-5---2-4---2------------|-----------------------0--------|
D---5-------------------2-3-0----|-------------------2-3-------2-3|
A-3------------------------------|---------------------------3----|
E--------------------------------|--------------------------------|
                                 |                                |
G-------9-10--7-9---5------------|-------------5---------5-5------|
D---10------------------7-9-5----|-------5---------3-----------3--|
A-7------------------------------|-3------------------------------|
E--------------------------------|--------------------------------|




Theme 3 cont'd Theme 3 cont'd
e-----3-2-1---------8---8-8------|-----3-2-1----------------------|
B-----------3---5----------------|-----------3---5-------1-----1-3|
G--------------------------------|-------------------1-2-----2----|
D--------------------------------|--------------------------------|
A--------------------------------|--------------------------------|
E--------------------------------|--------------------------------|
                                 |                                |
e--------------------------------|--------------------------------|
B-----5-4-3-0---1---6---6-6------|-----5-4-3-0---1----------------|
G--------------------------------|-----------------------0--------|
D--------------------------------|-------------------2-3-------2-3|
A--------------------------------|---------------------------3----|
E--------------------------------|--------------------------------|
                                 |                                |
G---------------5---12--1212--0--|-------------5---------5-5------|
D-------2-----5------------------|-------5---------3-----------3--|
A-3------------------------------|-3------------------------------|
E--------------------------------|--------------------------------|


Theme 3 cont'd Theme 4a
e--------------------------------|--------------------------------|
B-----4-----3-----1--------------|-1-1---1---1-3---5--------------|
G--------------------------------|-------------------5---2-0------|
D--------------------------------|--------------------------------|
A--------------------------------|--------------------------------|
E--------------------------------|--------------------------------|
                                 |                                |
e--------------------------------|--------------------------------|
B--------------------------------|--------------------------------|
G-----1--------------------------|-1-1---1---1-3---0--------------|
D-----------3-----2--------------|-------------------2---2--------|
A--------------------------------|-------------------------3------|
E--------------------------------|--------------------------------|
                                 |                                |
G-----1-----3-----5--------------|--------------------------------|
D-----------------------5-5------|-------------6---5--------------|
A-3---------------------------3--|-------6---------------3--------|
E--------------------------------|-4---------------------------3--|




Theme 4b Theme 5
e--------------------------------|--------------------------------|
B-1-1---1---1-3---5--------------|-5-----------------6---6--------|
G--------------------------------|---5----------------------------|
D--------------------------------|-------5-----6---7-------7------|
A--------------------------------|--------------------------------|
E--------------------------------|--------------------------------|
                                 |                                |
e--------------------------------|--------------------------------|
B--------------------------------|--------------------------------|
G-1-1---1---1-3---0--------------|-5-----------------5---5--------|
D--------------------------------|---7----------------------------|
A--------------------------------|-------7-----7---8-------8------|
E--------------------------------|--------------------------------|
                                 |                                |
G--------------------------------|-------------5-----------5-5----|
D-------------6---5--------------|-------4-5-------3---3-------3--|
A-------6---------------3--------|-3------------------------------|
E-4---------------------------3--|--------------------------------|






Theme 5 cont'd Theme 5 cont'd
e---5---5-5-3---1-0--------------|--------------------------------|
B-0-----------------1------------|-5-----------------6---6--------|
G-----------------------2-0------|---5----------------------------|
D--------------------------------|-------5-----6---7-------7------|
A--------------------------------|--------------------------------|
E--------------------------------|--------------------------------|
                                 |                                |
e--------------------------------|--------------------------------|
B---6---6-6-5--------------------|--------------------------------|
G-0-------------7-5--------------|-5-----------------5---5--------|
D-------------------7------------|---7----------------------------|
A-----------------------8-7------|-------7-----7---8-------8------|
E--------------------------------|--------------------------------|
                                 |                                |
G-------------4-----------5-5----|-------------5-----------5-5----|
D-0-----3-5-------5---5-------5--|-------4-5-------3---3-------3--|
A--------------------------------|-3------------------------------|
E--------------------------------|--------------------------------|




Theme 5 cont'd
e---1---1-1-0--------------------|
B-0-------------3-1--------------|
G--------------------------------|
D--------------------------------|
A--------------------------------|
E--------------------------------|
                                 |
e--------------------------------|
B---3---3-3-1---0----------------|
G-0---------------0--------------|
D-------------------2---2--------|
A-------------------------3------|
E--------------------------------|
                                 |
G-0-0---0-0-2---4-5--------------|
D---------------------5----------|
A-------------------------3------|
E--------------------------------|

VGJam Tabs Super Mario Bros. - "Aboveground BGM"
Tabs database last modified Tuesday, 01-Nov-2016 19:14:53 UTC.
Copyright © 1999 - 2016 VideoGameJam.com. All rights reserved.