VGJam Tabs Super Mario Bros.
Super Mario Bros.
"Starman / Coin Heaven theme" - Guitar tab
Platform(s):Nintendo Entertainment System
Composed by:Koji Kondo
Tabbed by:Deezer
Last modified:2011-02-23
Print it:Original file (.TXT)
Hear it:MIDI file
#----------------------------------PLEASE NOTE---------------------------------#
#This file is the author's own work and represents their interpretation of the #
#song. You may only use this file for private study, scholarship, or research. #
#------------------------------------------------------------------------------#

Super Mario Bros. (Nintendo Entertainment System)
"Starman theme"

Originally composed by: Koji Kondo
------------------------------------------------------------------------------
Tabbed by: Deezer (deezer AT videogamejam DOT com)
For http://www.videogamejam.com
------------------------------------------------------------------------------

Standard tuning (low to high: EADGBe)


 (Dm7)                             (Cmaj7)

|-8---8---8-----8---8-----8---8---|-7---7---7-----7---7-----7---7---|
|-6---6---6-----6---6-----6---6---|-5---5---5-----5---5-----5---5---|
|-------------7---------7---7-----|-------------5---------5---5-----|
|---------------------------------|---------------------------------|
|---------------------------------|---------------------------------|
|---------------------------------|---------------------------------|
|
|
|---------------------------------|---------------------------------|
|---------------------------------|---------------------------------|
|---------------7-------------7---|---------------5-------------5---|
|---------7---------------7-------|---------5---------------5-------|
|-5-------------------------------|-3-------------------------------|
|---------------------------------|---------------------------------|

Repeat from beginning.


Revision history:
 08/26/1999 - First draft.
 02/23/2011 - Improved the spacing and added the second guitar part.

VGJam Tabs Super Mario Bros. - "Starman / Coin Heaven theme"
Tabs database last modified Tuesday, 01-Nov-2016 19:14:53 UTC.
Copyright © 1999 - 2016 VideoGameJam.com. All rights reserved.