VGJam Tabs Super Mario Bros.
Super Mario Bros.
"Underground BGM" - Guitar tab
Platform(s):Nintendo Entertainment System
Composed by:Koji Kondo
Tabbed by:Deezer
Last modified:2000-02-10
Date added:1999-04-04
Print it:Original file (.TXT)
Hear it:MIDI file
#----------------------------------PLEASE NOTE---------------------------------#
#This file is the author's own work and represents their interpretation of the #
#song. You may only use this file for private study, scholarship, or research. #
#------------------------------------------------------------------------------#

Super Mario Bros. (NES)
"Underground BGM"

Originally composed by: Koji Kondo
------------------------------------------------------------------------------
Tabbed by Deezer - deezer@usa.net
For http://www.kontek.net/vgjam/
------------------------------------------------------------------------------

Symbols used:
 p  = Pull-off
 h  = Hammer-on

Tuning: Down a whole step - (low to high) DGCFAd


|---------------|
|---------------|
|----7---4---5--|
|---------------|
|--5---2---3----|
|---------------| x2

|---------------|
|---------------|
|---------------|
|----5---2---3--|
|---------------|
|--3---0---1----| x2
         
-------------------------------------------------------
-------------------------------------------------------
----------------------------------5p4p3----------------
--3p2p1p0--3--2--------1--0h6p5p4-------3--------------
-----------------1--0----------------------4--3--2--1--
-------------------------------------------------------

Repeat the whole thing ad nauseum.


Revisions:
 2/10/2000 - Added composer, tabbed for new tuning.
 3/15/1999 - First draft.

VGJam Tabs Super Mario Bros. - "Underground BGM"
Tabs database last modified Tuesday, 01-Nov-2016 19:14:53 UTC.
Copyright © 1999 - 2016 VideoGameJam.com. All rights reserved.