VGJam Tabs Super Mario Bros.
Super Mario Bros.
"Underground BGM" - Bass tab
Platform(s):Nintendo Entertainment System
Composed by:Koji Kondo
Tabbed by:Cole Mitchell
Last modified:2000-01-02
Print it:Original file (.TXT)
Hear it:MIDI file
SUPER MARIO BROS. UNDERGROUND
Composed by ???
Transcribed by Cole Mitchell (cole_mitchell@hotmail.com)


NOTE: Each space of two characters represents a 16th note. The
3/2 symbol used in this tab indicates a triplet rhythm. The
space taken up by the three notes determines the time to
play them in. For example, if the three notes take up the
space normally taken up by two 8th notes, play the notes in
the time taken up by two 8th notes.


G---17--14--15-------------------|---17--14--15-------------------|
D--------------------------------|--------------------------------|
A-15--12--13---------------------|-15--12--13---------------------|
E--------------------------------|--------------------------------|


3/2
G---10--7---8--------------------|---10--7---8--------------------|
D--------------------------------|--------------------------------|
A-8---5---6----------------------|-8---5---6-------------------654|
E--------------------------------|--------------------------------|


3/2 3/2 3/2 3/2
G------------------------------32|-1------------------------------|
D--------------------------43-2--|----1---------------------------|
A-3---6---5-----------4---3------|-------2-1--0-------------------|
E-------------4---3--------------|---------------4----------------|

VGJam Tabs Super Mario Bros. - "Underground BGM"
Tabs database last modified Tuesday, 01-Nov-2016 19:14:53 UTC.
Copyright © 1999 - 2016 VideoGameJam.com. All rights reserved.