VGJam Tabs Super Mario Bros.
Super Mario Bros.
"Water theme" - Guitar tab
Platform(s):Nintendo Entertainment System
Composed by:Koji Kondo
Tabbed by:Deezer
Last modified:2001-11-07
Print it:Original file (.TXT)
Hear it:MIDI file
#----------------------------------PLEASE NOTE---------------------------------#
#This file is the author's own work and represents their interpretation of the #
#song. You may only use this file for private study, scholarship, or research. #
#------------------------------------------------------------------------------#

Super Mario Bros. (NES)
"Water theme"

Originally composed by: Koji Kondo
------------------------------------------------------------------------------
Tabbed by: Deezer (deezer@kontek.net)
For http://www.kontek.net/vgjam/
------------------------------------------------------------------------------

Time signature: 3/4

Standard Tuning - (low to high) EADGBe


-------------------------------------------------------------
-------------------------------------16--16--16----16----16--
-------------------12----14----15----------------------------
-12----14----16----------------------------------------------
-------------------------------------------------------------
-------------------------------------------------------------

--------------------------------------
------17------------16------------17--
--12----------------------------------
--------------------------------------
--------------------------------------
--------------------------------------

----------------------12-------------------13----12--
----------12--13--15---------------16----------------
--12--14---------------------------------------------
-----------------------------------------------------
-----------------------------------------------------
-----------------------------------------------------

--------------------------------------
------15------------14------------15--
--12----------------------------------
--------------------------------------
--------------------------------------
--------------------------------------

-------------------------------------------13----12--
----------12--13--14--15------------12---------------
--12--14---------------------------------------------
-----------------------------------------------------
-----------------------------------------------------
-----------------------------------------------------

------15------------15------------15------------15----17--
----------------------------------------------------------
--12------------------------------------------------------
----------------------------------------------------------
----------------------------------------------------------
----------------------------------------------------------

--15--13------------13------------13------------13----15--
----------------------------------------------------------
----------------------------------------------------------
----------------------------------------------------------
----------------------------------------------------------
----------------------------------------------------------

--13--12------------------------13----12--12--12--------------
--------------------------12--------------------------12--13--
--------------------14----------------------------------------
--------------------------------------------------------------
--------------------------------------------------------------
--------------------------------------------------------------

Repeat from beginning.


Revisions:
 8/26/99 - First draft.
 11/07/2001 - Moved everything up an octave.

VGJam Tabs Super Mario Bros. - "Water theme"
Tabs database last modified Tuesday, 01-Nov-2016 19:14:53 UTC.
Copyright © 1999 - 2016 VideoGameJam.com. All rights reserved.