VGJam Tabs Super Mario Bros. 2
Super Mario Bros. 2
"Aboveground BGM" - Bass tab
Platform(s):Nintendo Entertainment System
Composed by:Koji Kondo
Tabbed by:Michael Gum
Last modified:2002-07-25
Print it:Original file (.TXT)
Hear it:MIDI file
Game: Super Mario Bros. 2 
Developer: Nintendo 
Song: Overworld Music 
Tabbed by: Michael Gum (zztwizard@aol.com) 

The fun li'l bassline from the main Super Mario 2 song. 

---0---0---0---0---0---0---0---0--- 
----------------------------------- 
-3---3---2---2---1---1---0---0----- 
----------------------------------- 

---------------2------------------- 
---3---4---5-----0-3---0----------- 
-------------0-----------3---3----- 
-1---2---3-----------3-----3------- 

-------0-2-0----------------------- 
---0-2-------2---0-2-4---0h2------- 
-3-------------3-------0-----3-2-0- 
----------------------------------- 

---0------------------------------- 
-----3-0-------------0-1-2--------- 
---------2---0-2-3-4-------2p0---2- 
-3---------3-------------------3--- 

-------0-2-0----------------------- 
---0-2-------2---0-2-4---0h2------- 
-3-------------3-------0-----3-2-0- 
----------------------------------- 

---0------------------------------- 
-----3-0--------------------------- 
---------2---0-2-3---0-2-3--3------ 
-3---------3-------3--------------- 

---4-1----------------------------- 
-2-----3-2-0-----------0-2--------- 
-------------2---0-2-3-----3-2-0--- 
---------------4------------------- 

-------2---------0----------------- 
-0-2-4---0---0-4---3-0---0--------- 
-----------0-----------2---2-0----- 
-------------------------------3--- 

VGJam Tabs Super Mario Bros. 2 - "Aboveground BGM"
Tabs database last modified Tuesday, 01-Nov-2016 19:14:53 UTC.
Copyright © 1999 - 2016 VideoGameJam.com. All rights reserved.