VGJam Tabs Super Mario Bros. 2
Super Mario Bros. 2
"Underground BGM" - Guitar tab
Platform(s):Nintendo Entertainment System
Composed by:Koji Kondo
Tabbed by:Deezer
Last modified:2013-01-15
Print it:Original file (.TXT)
Hear it:MIDI file
#----------------------------------PLEASE NOTE---------------------------------#
#This file is the author's own work and represents their interpretation of the #
#song. You may only use this file for private study, scholarship, or research. #
#------------------------------------------------------------------------------#

Super Mario Bros. 2 (NES)
"Underground BGM"

Originally composed by: Koji Kondo
------------------------------------------------------------------------------
Tabbed by: Deezer (deezer@usa.net)
For http://www.kontek.net/vgjam/
------------------------------------------------------------------------------

This should bring back some memories... ;)

Standard Tuning - (low to high) EADGBe


 (F5)
---------------------------------------------
-------------9----10-----------------9----8--
---------10--8-----9-------------10--8----7--
-----10----------------------10--------------
--8-----------------------8------------------
---------------------------------------------

  F5     Bb5                             F5     G5     Ab5
--8------6------1----4------6-----------------------------
--6------4------1----4------6----4--6---------------------
---------------------------------3--5----5------7------8--
-----------------------------------------3------5------6--
----------------------------------------------------------
----------------------------------------------------------

Repeat from beginning.


Revisions:
 1/15/2013 - Edited chord names.
 9/13/99 - Fixed an incorrect chord name
 9/1/99 - First draft

VGJam Tabs Super Mario Bros. 2 - "Underground BGM"
Tabs database last modified Tuesday, 01-Nov-2016 19:14:53 UTC.
Copyright © 1999 - 2016 VideoGameJam.com. All rights reserved.