VGJam Tabs Super Mario Bros. 3
Super Mario Bros. 3
"Airship theme" - Guitar tab
Platform(s):Nintendo Entertainment System
Composed by:Koji Kondo
Tabbed by:Shingo Beyeler
Last modified:2001-08-25
Print it:Original file (.TXT)
Game: Super Mario Brothers 3
Platform: NES
Song Title: Airship Theme

Opening:
------------------------------------------
------------------------------------------
------------------------------------------
------------------------------------------
-4---4---4-4-4-4------4---4---4-4-4-4-----

Let these notes ring out a bit:
-------------------------------------------------------
-------------------------------------------------------
-------------------------------------------------------
------------------------------------------5-------4----
-0-----7-----6-------------------4---------------------

Play this after the 0,7,6 and the 4,5,4(to mimic the drums playing in the 
background):

--------------------------------------
--------------------------------------
--------------------------------------
--------------------------------------
-0---0-0-0-0-----0---0---0-0-0-0------

Then:
------------------------------------------------------------------------------------------------
------------------------------------------------------------------------------------------------
--------------------------------------------------------6---6---6-6-6-9-9-9-6---6---6-6-6-9-9-9-
-5---5---5-5-5-8-8-8-5----5----5-5-5-8-8-8------------------------------------------------------
------------------------------------------------------------------------------------------------

Repeat.

VGJam Tabs Super Mario Bros. 3 - "Airship theme"
Tabs database last modified Tuesday, 01-Nov-2016 19:14:53 UTC.
Copyright © 1999 - 2016 VideoGameJam.com. All rights reserved.