VGJam Tabs Super Mario Bros. 3
Super Mario Bros. 3
"King's room" - Guitar tab
Platform(s):Nintendo Entertainment System
Composed by:Koji Kondo
Tabbed by:Michael Gum
Last modified:2004-11-21
Print it:Original file (.TXT)
Hear it:MIDI file
Game: Super Mario Bros. 3 
Developer: Nintendo 
Song: King's Room 
Tabbed by: Michael Gum (almightyjimbob@gmail.com)

Main Melody:
Use a delay pedal set to about 300ms.
Play so that the echo starts between
the second and third notes.

E|-12-10-----------------------------
B|-------13-12-13----10--------------
G|----------------12----12-9-------9-
D|---------------------------10-12---
A|-----------------------------------
E|-----------------------------------

Bass Melody:
(transcribed to guitar)

E|-----------------------------------
B|-----------------------------------
G|-----------------------------------
D|-------------------------5---------
A|-3---------------------------------
E|-----------------------------------

E|-----------------------------------
B|-----------------------------------
G|-----------------------------------
D|-3---------------------------------
A|-------------------------0----2----
E|-----------------------------------

E|-----------------------------------
B|-----------------------------------
G|-----------------------------------
D|-----------------------------------
A|-3---------------------------------
E|-----------------------------------

VGJam Tabs Super Mario Bros. 3 - "King's room"
Tabs database last modified Tuesday, 01-Nov-2016 19:14:53 UTC.
Copyright © 1999 - 2016 VideoGameJam.com. All rights reserved.